Cifra Club

Washing Machine Heart

Mitski

Tab de baixo: Principal
[Intro] 

G|----------------------------------------------|
D|----------------------------------------------|
A|4--4--4--4--4--4--4--4-4--4--4--4--4--4--4--4-|
E|----------------------------------------------|

[Primeira Parte]

Parte 1 de 5

G|----------------------------------------------|
D|----------------------------------------------|
A|4--4--4--4--0--0--0--0-5--5--5--5--0--0--0--0-|
E|----------------------------------------------|

Parte 2 de 5
 
G|----------------------------------------------|
D|3--3--3--3--4--4--4--4------------------------|
A|-----------------------5--5--5--5--0--0--0--0-|
E|----------------------------------------------|

Parte 3 de 5

G|----------------------------------------------|
D|----------------------------------------------|
A|-----------------------0--0--0--0--5--0--2--3-|
E|2--2--2--2--0--0--0--0------------------------|

Parte 4 de 5

G|----------------------------------------------|
D|----------------------------------------------|
A|4--4--4--4--0--0--0--0-5--5--5--5--0--0--4--2-|
E|----------------------------------------------|

Parte 5 de 5

G|----------------------------------------------|
D|----------------------------------------------|
A|0--0--0--0--5--5--5--5--0--0--0--0------------|
E|----------------------------------------------|

[Ponte]

Parte 1 de 3

G|----------------------------------------------|
D|----------------------------------------------|
A|-----------------------7--7--7--7--7--7--7--7-|
E|7--7--7--7--7--7--7--7------------------------|

Parte 2 de 3
 
G|----------------------------------------------|
D|5--5--5--5--5--5--5--5------------------------|
A|-----------------------5--5--5--5--5--5--5--5-|
E|----------------------------------------------|

Parte 3 de 3

G|----------------------------------------------|
D|----------------------------------------------|
A|6--6--6--6--6--6--6--6-5--5--5--5--5--5--5--6-|
E|----------------------------------------------|

[Final]

G|----------------------------------------------|
D|----------------------------------------------|
A|0--0--0--0--0--0--0--0-0--0--0--0--0--0--0--0-|
E|----------------------------------------------|
00:00 / 00:00
Outros vídeos desta música
Repetir
Outros vídeos desta música
Composição de Mitski
Colaboração e revisão:
  • Sergio Prolo
6.168 exibições

0 comentários

Ver todos os comentários

Conseguiu tocar?

8 Tocaram 4 Ainda não

Grave um vídeo tocando Washing Machine Heart e nos envie!

Entre para oCifra Club PRO

Tenha acesso a benefícios exclusivos no App e no Site

  • Chega de anúncios

  • Prioridade de compra em lançamentos

  • Mais recursos no app do Afinador

  • Atendimento Prioritário

  • Descontos nos produtos Cifra Club

  • Ajude a produzir mais conteúdo

00:00 / 00:00

Cifra Club Pro

Aproveite o Cifra Club com benefícios exclusivos e sem anúncios
Cifra Club Pro
Aproveite o Cifra Club com benefícios exclusivos e sem anúncios
OK