Cifra Club

Are You Ready To Rock?

Miyavi

Cifra: Principal (violão e guitarra)
tom: B
Tuning - C#,F#,B,E,G#,C#

Palm Mute or Left Hand Mute : X
Slide Down :
Slide Up : /
Tremolo : ~
Harmonics : ()
Hammer On : h
Pull Off : p

Intro :

C#|-----------------------------------(5)----------------------------------------|
G#|-----------------------------------(5)----------------------------------------|
 E|-----------------------------------(5)----------------------------------------|
 B|-----------------------------------(5)----------------------------------------|
F#|-10---2--2-2/42-4/54-2-4--2-2---------0-------5h7p0--0----54/54--2/42---------|
C#|-------0--0-3/53-5/65-3-5--3-0---------0-5h7p0--------0----65/65--3/53--------|

C#|-----------|
G#|-----------|
 E|-----------|
 B|-----------|
F#|--0---2----|
C#|--0---0----|

Riff 1 :

C#|----------------x---------x--        -----------------|
G#|----------------x---------x--        -----------------|
 E|----------------x---------x--        -----------------|
 B|----------------x---------x-- (Main)   ---------------|  (Additional)
F#|--10-2-2--x-x-----x-x-x-----        --0-7-0--2-2------|
C#|------0-0--x-x-----x-x-x-----        --0-5-0--0-0-----|

C#|-------x---------x--------------|
G#|-------x---------x--------------|
 E|-------x---------x--------------|
 B|-------x---------x--------------|   (Variation)
F#|--x-x-----x-x-x-----5-5-7-7-0---|
C#|--x-x-----x-x-x-----3-3-5-5-0---|

Riff 2 :

C#|------------------------------------          ------------------|
G#|------------------------------------          ------------------|
 E|------------------------------------          ------------------|
 B|------------------------------------  (Main)  ------------------|  (Additional 1)
F#|--2-2-x-x--5-5-5/72-2-x-x--7-7-7--          ----0-7777----------|
C#|--0-0-x-x--3-0-3---0-0-x-x--5p0h5---          ----0-5555--------|

C#|--------------|
G#|--------------|
 E|--------------|
 B|-----9999-----|  (Additional 2)
F#|---0-7777-----|
C#|---0----------|

C#|------------------x---------x---      -----------------|
G#|------------------x---------x---      -----------------|
 E|------------------x---------x---      -----------------|
 B|------------------x---------x---      -----------------|  (Variation)
F#|-2-2--5/7-7--x-x-----x-x-x------      ---0-7-72--2-----|
C#|-0-0--3/5-5--x-x-----x-x-x------      ---0-5-0-0--0----|

C#|--------------------------------|
G#|--------------------------------|
 E|--------------------------------|
 B|--------------------------------|   (Verse Ending)
F#|--9-9-9-9-9-9-9--7--------------|
C#|--7-7-7-7-7-7-7--5--------------|

Riff 3 :

C#|--------------------------|
G#|--------------------------|
 E|--------------------------|
 B|--------------------------|
F#|----99-77-55-8-7-5-0-5-9--|
C#|--0h77-55-33-6-5-3-0-3-0--|

Chorus 1 :

C#|--3-3-3-3-3-3-3-----------------                 ------------------------|
G#|--3-3-3-3-3-3-3--2-2-2-2-2-2-2--                 ------------------------|
 E|--0-0-0-0-0-0-0--2-2-2-2-2-2-2--                 ------------------------|
 B|--0-0-0-0-0-0-0--2-2-2-2-2-2-2--  (Play Riff 2)  --4-4-4-4-4-4-4-4---5---|
F#|--2-2-2-2-2-2-2--0-0-0-0-0-0-0--                 --2-2-2-2-2-2-2-2---3---|
C#|--3-3-3-3-3-3-3-----------------                 ------------------------|

Chorus 2 :

C#|---------------------------------------------------------------------|
G#|---------------------------------------------------------------------|
 E|---------------------------------------------------------------------|
 B|---------------------------------------------------------------------|
F#|--5-5-5-5-5-5-5-7-7-7-7-7-7-7-9-9-9-9-9-9-9--10---10--10--10---------|
C#|--3-3-3-3-3-3-3-5-5-5-5-5-5-5-7-7-7-7-7-7-7--8----8---8---8----------|

Ending :

Riff 3, but end with a normal A chord.

...and that's it! I'm done. It's 3 in the morning, and I'm off to bed...
Composição de Miyavi
Colaboração e revisão:
  • Gabriela Pacheco
9.320 exibições
    • ½ Tom
    • A
    • Bb
    • B
    • C
    • Db
    • D
    • Eb
    • E
    • F
    • F#
    • G
    • Ab
  • Adicionar à lista

    0 comentários

    Ver todos os comentários

    Conseguiu tocar?

    1 Tocaram 1 Ainda não

    Grave um vídeo tocando Are You Ready To Rock? e nos envie!

    00:00 / 00:00
    Outros vídeos desta música
    Repetir Qualidade Automático
    Outros vídeos desta música
    00:00 / 00:00
    Automático

    Cifra Club Pro

    Aproveite o Cifra Club com benefícios exclusivos e sem anúncios
    Cifra Club Pro
    Aproveite o Cifra Club com benefícios exclusivos e sem anúncios
    OK