Beggin'

Måneskin

Composição de: Bob Gaudio / P. Farina
tom: Bm Afinação: E A D G B E
[Intro]

Put your loving hand out, baby

'Cause I'm beggin'

( Bm ) 

[Tab - Intro]

E|-----------------------------------------------------|
B|-----------------------------------------------------|
G|-4-2-------------------------------------------------|
D|-----4-2-0-------------------------------------------|
A|-----------------------------------------------------|
E|-----------------------------------------------------|

E|-2-2--2-2-3-------2-2-2-2-------2-2-2-2--------------|
B|-3-3--3-3-3-------3-3-3-3-------3-3-3-3--------------|
G|-4-4--4-4-4-------4-4-4-4-------4-4-4-4--------------|
D|-4-4--4-4-4-------4-4-4-4-------4-4-4-4--------------|
A|-2-2--2-2-2-0-1-2-2-2-2-2-0-1-2-2-2-2-2-0-1-2--------|
E|-----------------------------------------------------|

​​Parte 3 de 3
E|-2--2-2-2-3--2-2-------------------------------------|
B|-3--3-3-3-3--3-3-------------------------------------|
G|-4--4-4-4-4--4-4-------------------------------------|
D|-4--4-4-4-4--4-4-------------------------------------|
A|-2--2-2-2-2--2-2-------------------------------------|
E|-----------------------------------------------------|
   ↓  ↑ ↑ ↓ ↓  ↓ ↑

[Refrão]

Bm             Em7        C#m7(5-)
    I'm beggin', beggin' you
                    F#7
So put your loving hand out, baby
Bm            Em7         C#m7(5-)
   I'm beggin',  beggin' you
                    F#7
So put your loving hand out, darlin'

[Primeira Parte]

Bm             G
   Riding high,  when I was king
C#m7                       F#
     I played it hard and fast

'Cause I had everything
Bm               G
   I walked away,  but you warned me then
C#m7                  F#
    But easy come and easy go

And it would end

    Bm
So, anytime I bleed, you let me go
     G
Yah, anytime I feed, you get me know
C#m7
Anytime I seek, you let me know
        F#
But I planted that seed, just let me go

    Bm
I'm on my knees while I'm beggin'
       G                      C#m7(5-)
'Cause I don't wanna to lose you
     F#        
Hey yeah, ratatata

[Refrão]

 Bm            Em7          C#m
    I'm beggin',   beggin' you, ah
                     F#7
Uh, put your loving hand out, baby
Bm            Em7          C#m7(5-)
   I'm beggin',   beggin' you
                     F#7
And put your loving hand out darlin'

[Segunda Parte]

[Tab - Segunda Parte]

Parte 1 De 3
E|----------------------4------------------------------|
B|------------------------5----------------------------|
G|-------4------------4-----4------------3----3--------|
D|-----5---5--------6---------6--------4---4----4------|
A|---5-------5----4-------------4----4-----------------|
E|-3-----------3-------------------2-------------------|

Parte 2 De 3
E|-------------------------------------4---------------|
B|-------3-------------------------------5-------------|
G|-----4---4-----------4----4--------4-----4-----------|
D|---4-------4-------5---5----5----6---------6---------|
A|-2-----------2---5-------------4-------------4-------|
E|---------------3-------------------------------------|

Parte 3 De 3
E|-----------------------------------------------------|
B|-----------------------------------------------------|
G|-------3---3-----------------------------------------|
D|-----4---4---4---------------------------------------|
A|---4-------------------------------------------------|
E|-2---------------------------------------------------|

              G
I need you to understand
C#m7                  F#
    Tried so hard to be your man
Bm                      G
   The kind of man you want in the end
       C#m7(5-)               F#
Only then can I begin to live again

Bm
   An empty shell
G
  I used to be
C#m7                  F#  
    The shadow of my life

Was hangin' over me
Bm
   A broken man
G
  But I don't know
C#m7                        F#7
    Won't even stand the devil's dance

To win my soul

[Terceira Parte]

         Bm
What we doin'? What we chasin'?
          Em7
What the bottom? Why the basement?
        C#m7(5-)
Why we got good shit, don't embrace it?
         F#
Why the feel for the need to replace me?

             Bm
You're the wrong way track from the good
                        Em7
I want to paint in the picture

Tellin' where we could, be at
         C#m7(5-)
Like a heart in the best way should
                   F#
You can give it away, you had it

And you took it pay

    Bm
But I keep walkin' on
              Em7
Keep openin' doors

Keep hopin' for
                 C#m7(5-)
Now the door is yours

Keep also home
                      F#
'Cause I don't wanna live in a broken home

Girl, I'm beggin'

[Refrão]

Bm
   Yeah
           G           C#m7(5-)
I'm beggin',  beggin' you
                    F#7
So put your loving hand out, baby
Bm            Em7          C#m7(5-)
   I'm beggin',   beggin' you
                    F#7
So put your loving hand out, darlin'

[Quarta Parte]

I'm fightin' hard
    G
To hold my own
C#m7                   F#
    Just can't make it all alone
Bm
   I'm holdin' on
   G
I can't fall back
     C#m7                F#
I'm just a con 'bout to fade to black

[Refrão Final]

Bm            G          C#m7(5-)
   I'm beggin', beggin' you
                    F#7
So put your loving hand out, baby
Bm            G          C#m7(5-)
   I'm beggin', beggin' you
                    F#7
So put your loving hand out, darlin'

Bm            Em7          C#m7(5-)
   I'm beggin',   beggin' you
                    F#7
So put your loving hand out, baby
Bm            Em7          C#m7(5-)
   I'm beggin',   beggin' you
                    F#7
So put your loving hand out, darlin'

[Tab - Final]

E|-----------------------------------------------------|
B|-----------------------------------------------------|
G|-----------------------------------------------------|
D|--------0----2--2--2--------2---4--4---4-------------|
A|-2--2-2---2----------4--4-4---4------0---4-0---------|
E|-----------------------------------------------------|


I'm beggin', beggin' you

So put your loving hand out, baby

I'm beggin', beggin' you
                                    Bm
So put your loving hand out, darlin'
Página 1 / 1

Letras e título
Acordes e artista

resetar configurações
OK