Cifra Club

Aprenda

Deixe-se acreditar

Mombojó

Cifra: Principal (violão e guitarra)
tom: A
F#m7 G#º A6 Bm6 D7M C#7(b13) 
Intro

E|-------------------------------------------------------|
B|-------------------------------------------------------|
G|----9-10-11-11-11-9------------------------------------|    3 X
D|-11-----------------12-11-11-11--11-9------------------|
A|--------------------------------------9-9-9-7-8-9-9-9--|
E|-------------------------------------------------------|

E|---------------------------------------------------9-9-9-9--|
B|------10-9-7--7-9------------------10-9-10-12-10-9----------|
G|-6--9--------9----6-6-6-6-6---6--9--------------------------|   2 X
D|------------------------------------------------------------|
A|------------------------------------------------------------|
E|------------------------------------------------------------|

F#m7 G#º A6 Bm6 D7M C#7(b13) 

F#m7                      G#º
 Eu quero um samba pra me aquecer 
      A6             Bm6      D7M
Quero algo pra beber, quero você 
                 C#7(b13)
Peça tudo que quiser
F#m7            G#º
 Quantos sambas agüentar dançar
A6                      Bm6
 Mas não esqueça do seu trato
             D7M
Da hora de parar
                       C#7(b13)
Só vamos embora quando tudo terminar
F#m7         G#º       A6           Bm6
 Eu vou te levar aonde você quer chegar
           D7M                        C#7(b13)
Eu tenho a chave, nada impede a vida acontecer
F#m7   G#º         A6
 Deixe-se acreditar
     Bm6
Nada vai te acontecer
D7M
Tudo pode ser
                           C#7(b13)
Nada vai te acontecer, não tema 
                         F#m7
Esse é o reino da alegria
         G#º            A6
Esse é o reino da alegria
         Bm6
Esse é o reino da alegria
D7M
Tudo pode ser
                           C#7(b13)
Nada vai te acontecer, não tema

[F#m7 F#m6 F7 A7M D#º Bm7 D7/b9] 2x F#m7*
Composição de China / Felipe S.
Colaboração e revisão:
31.897 exibições
    • ½ Tom
    • A
    • Bb
    • B
    • C
    • Db
    • D
    • Eb
    • E
    • F
    • F#
    • G
    • Ab
  • Adicionar à lista

    0 comentários

    Ver todos os comentários

    Conseguiu tocar?

    1 Tocaram 0 Ainda não

    Grave um vídeo tocando Deixe-se acreditar e nos envie!

    00:00 / 00:00
    outros vídeos desta música
    repetir qualidade Automático
    Outros vídeos desta música
    00:00 / 00:00
    Automático

    Cifra Club Pro

    Aproveite o Cifra Club com benefícios exclusivos e sem anúncios
    Cifra Club Pro
    Aproveite o Cifra Club com benefícios exclusivos e sem anúncios
    OK