Cifra Club

Start Angry End Mad

Moneen

Tab de baixo: Principal
intro

G------------------------------------|
D----------5-5-5-5-------------------|
A------------------2-2-2--5-5-5------| x8
E--3-3-3-3---------------------------|

G----------------------------------------------------------------------------|
D----5\----------------------------------------------------------------------|
A-----------------14-15-14----15p--------------------------------------------|
E-------3------------------------15------------------------------------------|


G--------------------------------------------------------------------------|
D--------------------------------------------------------------------------|
A-----------------0-0-0-0-0-0-0-0-2-2-2-2-2-2-2-2-3-3-3-3-3-3-3-3----------|
E--3-3-3-3-3-3-3-3---------------------------------------------------------|


G---------------------------------------------|
D---------------------------------------------|
A-----------3-3-3-3-5-5-5-5-2-2-2-2-----------|x4when singing stops each time
E-3-3-3-3-3-------------------------3-3-3-3-3-|


G--------------------------------------------------------------------------|
D--------------------------------------------------------------------------|
A--------------------------------------------------------------------------|
E-3-3-3-3-------3-3-3-3-------3-3-3-3-------3-3-3-3------------------------|


G----------------------------------------------------------------|
D------------------------------5---------------------------------|
A----------5-5-5-5-3-3-3-3-5-7---7-3-3-3-3-3-3-3-3-2-2-2-2-2-2-2-|x4
E--3-3-3-3-------------------------------------------------------|


G--------------------------------------------------------------------|
D--------------------------------------------------------------------|
A--------------------0-0-0-0-0-0-0-0-2-2-2-2-2-2-2-2-3-3-3-3-3-3-3-3-|x4
E--3-3-3-3-3-3-3-3-3-------------------------------------------------|


G---------------------------------|
D--5-5-5-5--55-55--5-5-5-5--55-55-|
A---------------------------------|
E---------------------------------|


G----------------------------------------|
D----------------------------------------|
A----------------------------------------|
E--3-3-3-3--3-3-33-3-3-33-33-3-----------|

intro

G------------------------------------|
D----------5-5-5-5-------------------|
A------------------2-2-2--5-5-5------| x8
E--3-3-3-3---------------------------|

G----------------------------------------------------------------------------|
D----5\----------------------------------------------------------------------|
A-----------------14-15-14----15p--------------------------------------------|
E-------3------------------------15------------------------------------------|


G--------------------------------------------------------------------------|
D--------------------------------------------------------------------------|
A-----------------0-0-0-0-0-0-0-0-2-2-2-2-2-2-2-2-3-3-3-3-3-3-3-3----------|
E--3-3-3-3-3-3-3-3-------------------------------------------------3-3-33--|


G-------------------------------|
D---5-5-55--5-5-55--------------|x11
A-------------------------------|
E-------------------------------|


G-------------------------------------------------------------------|
D-------------------------------------------------------------------|
A----------------------------------2-2-2-2-2-2-2-2-2-2-2-2-2-2-2-2--|x6
E--3-3-3-3-3-3-3-3-3-3-3-3-3-3-3-3----------------------------------|


G----------------------------------------------------------------------|
D----------------------------------------------------------------------|
A-----------------0-0-0-0-0-0-0-0-5-5-5-5-5-5-5-5-5-2-2-2-2-2-3-3-3-3--|x4
E-3-3-3-3-3-3-3-3------------------------------------------------------|


G-----
D-----
A-----
E--3~-

Have fun, love this band, great music
Composição de Moneen
68 exibições

0 comentários

Ver todos os comentários

Conseguiu tocar?

0 Tocaram 0 Ainda não

Grave um vídeo tocando Start Angry End Mad e nos envie!

00:00 / 00:00
Outros vídeos desta música
Repetir Qualidade Automático
Outros vídeos desta música
00:00 / 00:00
Automático

Cifra Club Pro

Aproveite o Cifra Club com benefícios exclusivos e sem anúncios
Cifra Club Pro
Aproveite o Cifra Club com benefícios exclusivos e sem anúncios
OK