Cifra Club

Aprenda

I'll Spend My Life With You

The Monkees

Tab de baixo: Principal
[Intro]

G|--------------------|
D|--------------------|
A|-8-8--6------8-8--6-|
E|--------6-----------|  

[Parte 1]

   People come and people go          Ibrin a crow and yet, Im all alone
G|-----------------------------------------------|
D|-----8----------8------------6-------------8---|
A|---8---8------8----8-------6-----6-------8---8-|
E|-6---------6---------6-4-----------4-6---------| 

[Parte 2]

   The road is long        I’m gonna a turn
G|--------------------------------------------|
D|-----8----------8---------6-------------8---|
A|---8-----8----8----8----6----6--------8---8-|
E|-6----------6--------6-4-------6-4-6--------|

[Refrão]

   And I hope  you’re there                              I’ll spendd my
G|-------------------------------8-7-----------3-5-5--8-------|
D|--------8-10-----------------------8------------------------|
A|---5-8--------10----------8-9--------8--5-------------6-5-3-|
E|-6---------------11-8--11-----------------3-5---------------|

                  queda
G|--------------------|
D|-8--------8---------|
A|---8----8---8-----8-|
E|-----6---------6----|

[Parte 3]

   I’ve had  all the time I need
G|-----------------------------------------|
D|-8------------8----------6-----------8---|
A|---8----8---8----8-----6-----6-----8---8-|
E|-----6----6--------6-4---------4-6-------|

[Parte 4]

   I’ve playead a game that coulu’ t last
G|----------------------------------------|
D|-----8--------8----------6----------8---|
A|---8----8---8----8-----6----6-----8---8-|
E|-6--------6--------6-4--------4-6-------|

[Refrão]

    And girl, I find
G|------------------------------8-7-----------3-5-5----------|
D|--------8-10----------------------8----------------5-------|
A|---5-8--------10---------8-9--------8--5-------------6-5-3-|
E|-6---------------11-8--11----------------3-5---------------|

   01:36    Solo
G|----------------------------------------------|
D|-8--------8-------------6----------8--------8-|
A|---8----8---8----8----6----6-----8----8---8---|
E|-----6---------6---6-4-------4-6--------6-----|

G|-------------------------------------|
D|----------8-----------8----------8---|
A|-8------8----8------8----6-----8---8-|
E|----6----------6-4---------4-6-------|

[Refrão]

   And girl   I find                               variação
G|------------------------------8-7-----------3--5----------|
D|--------8-10----------------------8-----------5---5-------|
A|---5-8--------10---------8-9--------8--5------------6-5-3-|
E|-6---------------11-8--11----------------3-5--------------|

[Final]

G|---10-8-7-------------|
D|-8--------10--8-8-----|
A|----------------------|
E|------------------6-6-|
Composição de Bobby Hart / Tommy Boyce
Colaboração e revisão:
  • marcos lima
21 exibições

0 comentários

Ver todos os comentários

Conseguiu tocar?

0 Tocaram 0 Ainda não

Grave um vídeo tocando I'll Spend My Life With You e nos envie!

00:00 / 00:00
outros vídeos desta música
repetir qualidade Automático
Outros vídeos desta música
00:00 / 00:00
Automático

Cifra Club Pro

Aproveite o Cifra Club com benefícios exclusivos e sem anúncios
Cifra Club Pro
Aproveite o Cifra Club com benefícios exclusivos e sem anúncios
OK