Cifra Club

Aprenda

Break Up The Family

Morrissey

Tab de baixo: Principal
Intro
G |--------------------------------|--------------------------------|
D |--------------------------------|--------------------------------|
A |-7---------------5--------------|-8---------------3--------------|
E |--------------------------------|--------------------------------|

G |--------------------------------|--------------------------------|
D |--------------------------------|--------------------------------|
A |-1------------------------------|-1------------------------------|
E |-----------------3--------------|-----------------3--------------|

G |--------------------------------|--------------------------------|
D |----------------------------5---|--------------------------------|
A |-7---------------8--------------|-3------------------------------|
E |--------------------------------|--------------------------------|

Verse
G |--------------------------------|--------------------------------|
D |--------------------------------|--------------------------------|
A |-3-3-3-------------------5------|--------------------------------|
E |--------------------------------|-3-3-3--------------------------|

G |--------------------------------|--------------------------------|
D |--------------------------------|--------------------------------|
A |-------------------------1------|-3-3-3--------------------------|
E |-1-1-1-----------1---3----------|--------------------------------|

Chorus A
G |--------------------------------|--------------------------------||
D |--------------------------------|--------------------------------||
A |-1-1-1-------------------1------|--------------------------------||
E |--------------------------------|-3-3-3--------------------------|| 2x

Chorus B
G |--------------------------------|--------------------------------||
D |--------------------------------|--------------------------------||
A |-1-1-1--------------------------|--------------------------------||
E |--------------------------------|-3-3-3---------------1----1-----|| 2x

Chorus C
G |--------------------------------|--------------------------------||
D |--------------------------------|--------------------------------||
A |-1-1-1-----------------5----3---|--------------------------------||
E |--------------------------------|-3-3-3--------------------------|| 2x

After Chorus
G |--------------------------------|--------------------------------|
D |-2-2-2-------------------2------|-3-3-3--------------------------|
A |--------------------------------|-------------------------1------|
E |--------------------------------|-----------------1---3----------|

G |--------------------------------|--------------------------------|
D |--------------------------------|--------------------------------|
A |-3-3-3--------------------------|-3-3-3--------------------------|
E |--------------------------------|--------------------------------|

Variation
G |--------------------------------|--------------------------------|
D |--------------------------------|-3-2----------------------------|
A |-3-3-3--------------------------|-----3--------------------------|
E |--------------------------------|--------------------------------|

Order:
[00:18] Intro

[00:45] Verse 2x
[01:03] Chorus A + After Chorus
Repeat This

[01:58] Chorus B + After Chorus
[02:16] Verse 2x
[02:34] Chorus C + After
[02:52] After Chorus 3x
[03:19] After Chorus with Variation

 
Composição de Morrissey / Stephen Street
399 exibições

0 comentários

Ver todos os comentários

Conseguiu tocar?

0 Tocaram 0 Ainda não

Grave um vídeo tocando Break Up The Family e nos envie!

00:00 / 00:00
outros vídeos desta música
repetir qualidade Automático
Outros vídeos desta música
00:00 / 00:00
Automático

Cifra Club Pro

Aproveite o Cifra Club com benefícios exclusivos e sem anúncios
Cifra Club Pro
Aproveite o Cifra Club com benefícios exclusivos e sem anúncios
OK