Cifra Club

Aprenda

I Have Forgiven Jesus

Morrissey

Tab de baixo: Principal
Intro
G |--------------------------------|--------------------------------|
D |--------------------------------|--------------------------------|
A |--------------------------------|--------------------------------|
E |--------------------------------|-------------------------12\----|

Verse A
G |--------------------------------|--------------------------------|
D |--------------------------------|--------------------------------|
A |--------------------------------|--------------------------------|
E |-5-5---5-5-----5---5---5-5\-----|-4-4---4-4-----4---4---4-4\-----|

G |--------------------------------|--------------------------------|
D |--------------------------------|-----------------7---6----------|
A |--------------------------------|---------------7---7---7--------|
E |-1-1---1-1-----1---1---1-1------|-0-0---0-0---------------5\-----|

Verse B
G |--------------------------------|--------------------------------|
D |--------------------------------|--------------------------------|
A |--------------------------------|--------------------------------|
E |-5-5---5-5-----5---5---5-5\-----|-0-0---0-0-----0---0---0-0------|

G |--------------------------------|--------------------------------|
D |--------------------------------|--------------------------------|
A |--------------------------------|--------------------------------|
E |-1-1---1-1-----1---1---1-1------|-3-3---3-3-----3---3---3-3------|

Bridge
G |--------------------------------|--------------------------------|
D |--------------------------------|--------------------------------|
A |--------------------------------|--------------------------------|
E |-1-1---1-1-----1---1---1-1------|-3-3---3-3-----3---3---3-3-4----|

Chorus
G |--------------------------------|--------------------------------|
D |--------------------------------|--------------------------------|
A |-----------------------------3-4|-5-5---5-5-----5---5---5-5\-----|
E |-5-5---5-5-----5---5---5-5------|--------------------------------|

G |--------------------------------|--------------------------------|
D |--------------------------------|--------------------------------|
A |--------------------------------|--------------------------------|
E |-1-1---1-1-----1---1---1-1------|-3-3---3-3-----3---3---3-3------|

F= 15

G |--------------------------------|--------------------------------|
D |--------------------------------|--------------------------------|
A |-3-3---3-3-----3---3---3-3---3/-|-F-F---F-F-----3-------3-5-3----| 
E |--------------------------------|-------------------3-5-------3--|

Verse C
G |--------------------------------|--------------------------------|
D |--------------------------------|--------------------------------|
A |--------------------------------|--------------------------------|
E |-5-5---5-5-----5---5---5-5\-----|-0-0---0-0-----0---0---0-0------|

G |--------------------------------|--------------------------------|
D |--------------------------------|--------------------------------|
A |--------------------------------|---------------------3---5------|
E |-1-1---1-1-----1---1---1-1------|-3-3---3-3-----3---3---3-----3--|

G |--------------------------------|--------------------------------|
D |--------------------------------|--------------------------------|
A |--------------------------------|--------------------------------|
E |-5-5---5-5-----5---5---5-5\-----|-0-0---0-0-----0---0---0-0------|

G |--------------------------------|--------------------------------|
D |--------------------------------|--------------------------------|
A |--------------------------------|--------------------------------|
E |-1-1---1-1-----1---1---1-1------|-3-3---3-3-----3---3---3-3------|

Instrumental
G |--------------------------------|--------------------------------|
D |--------------------------------|--------------------------------|
A |-5-5---5-5---5-5---5---5-5------|--------------------------------|
E |--------------------------------|-5-5---5-5---5-5---5-----5------|

G |--------------------------------|--------------------------------|
D |--------------------------------|--------------------------------|
A |-5-5---5-5---5-5---5-5---5---5-6|-7-7---7-7---7------------------|
E |--------------------------------|---------------0---0-0---0------|


Order:
[00:00] Intro + Verse A
[00:24] Verse B 2x
[00:48] Bridge
[00:54] Chorus

[01:12] Verse C
[01:36] Bridge
[01:42] Chorus

[02:00] Verse A 2x
[02:24] Intstrumental
[02:36] Verse A (skip first notes 1st time) 4x
Composição de Alain Whyte / Morrissey
1.567 exibições

0 comentários

Mostrar mais comentários

Conseguiu tocar?

0 Tocaram 0 Ainda não

Grave um vídeo tocando I Have Forgiven Jesus e mande pra gente!

00:00 / 00:00
outros vídeos desta música
repetir qualidade Automático
Outros vídeos desta música
00:00 / 00:00
Automático

Cifra Club Pro

Aproveite o Cifra Club com benefícios exclusivos e sem anúncios
Cifra Club Pro
Aproveite o Cifra Club com benefícios exclusivos e sem anúncios
OK