Cifra Club

Aprenda

King Leer

Morrissey

Tab de baixo: Principal
Intro
G |--------------------------------|--------------------------------||
D |--------------------------------|-4-------4-------4-------4------||
A |-0-------0-------0-------0------|-----4-------4-------4-------4--||
E |-----0-------0-------0-------0--|--------------------------------|| 2x

Verse
G |--------------------------------|--------------------------------||
D |--------------------------------|--------------------------------||
A |-2---------------------------2--|-------------------------5---4--||
E |-----5---4---2---0---2---4------|-5---4---2---0---2---5----------|| 2x

G |--------------------------------|
D |--------------------------------|
A |-5-------5-----5-7-------7------|
E |-----5-------5-------7-------0--|

Break
G |--------------------------------|--------------------------------|
D |--------------------------------|--------------------------------|
A |-0-------0-------0-------0--0---|--------------------------------|
E |-----0-------0-------0----------|-3---------------3--------------|

G |--------------------------------|--------------------------------|
D |--------------------------------|--------------------------------|
A |-0---------------0--------------|--------------------------------|
E |--------------------------------|-3---------------3--------------|

Order:
[00:00] Intro
[00:23] Verse
Repeat this

[01:45] Break
[02:08] Verse
[02:38] Intro (At End stop at first note)

 
251 exibições

0 comentários

Ver todos os comentários

Conseguiu tocar?

0 Tocaram 0 Ainda não

Grave um vídeo tocando King Leer e nos envie!

00:00 / 00:00
outros vídeos desta música
repetir qualidade Automático
Outros vídeos desta música
00:00 / 00:00
Automático

Cifra Club Pro

Aproveite o Cifra Club com benefícios exclusivos e sem anúncios
Cifra Club Pro
Aproveite o Cifra Club com benefícios exclusivos e sem anúncios
OK