More You Ignore Me

Morrissey

Composição de: Boz Boorer / Morrissey
Chorus
G |--------------------------------|--------------------------------|
D |-4-------6---4-----------3------|--------\4---------------4---6--|
A |-----------------1-----------1--|-2---------------4---4----------|
E |--------------------------------|--------------------------------|

G |--------------------------------|-------------------------6------|
D |-4-------6---4-----------3---4--|--------\4-------------------6--|
A |-----------------1--------------|-2---------------4--------------|
E |--------------------------------|--------------------------------|

G |--------------------------------|--------------------------------|
D |-4-------6---4-----------3------|--------\4---------------4---6--|
A |-----------------1-----------1--|-2---------------4---4----------|
E |--------------------------------|--------------------------------|

G |--------------------------------|--------------------------------|
D |-4-------6---4-----------3---4--|--------\4---------------4---6--|
A |-----------------1--------------|-2---------------4---4----------|
E |--------------------------------|--------------------------------|

Verse
G |--------------------------------|--------------------------------||
D |-6---6---6---6---6---6---6---6--|-------------------------4---6--||
A |--------------------------------|-4---4---4---4---4---4----------||
E |--------------------------------|--------------------------------|| 2x

G |--------------------------------|--------------------------------|
D |-6---6---6---6---6---6-------4--|-8---8---8---8---6---6-------6--|
A |-------------------------4------|-------------------------6------|
E |--------------------------------|--------------------------------|

G |-----------------8---8----------|--------------------------------|
D |-------------------------8---8--|-6---6---6---6---8---6---4---6--|
A |-6---6---6---6------------------|--------------------------------|
E |--------------------------------|--------------------------------|

G |--------------------------------|--------------------------------|
D |-------------------------6------|-6-------8-------9-------9--10--|
A |-4---4---6---4---6---4-------4--|-----4--------------------------|
E |--------------------------------|--------------------------------|

Outro
G |--------------------------------|--------------------------------|
D |-4---4---6---4---3--------------|-1------------------------------|
A |---------------------6---4---6--|---------2-------4^6-4---2---4--|
E |--------------------------------|--------------------------------|



Order:
[00:11] Chorus
[00:33] Verse
Repeat 3x
[02:40] Guitars Only
[02:51] Outro
Página 1 / 1

Letras e título
Acordes e artista

resetar configurações
OK