Cifra Club

Aprenda

Sister Im A Poet

Morrissey

Tab de baixo: Principal
Sister, I'm A Poet


Intro A
G |--------------------------------|
D |--------------------------------|
A |-----------------6--------------|
E |-4~~---------------------4------|

Chorus
G |--------------------------------|--------------------------------|
D |-------5---3--------------------|-------5----3-------------------|
A |-------------5^3---5------------|--------------5^3---5-----------|
E |-1---------------6-------4---6--|-1----------------6------4----6-|

G |--------------------------------|--------------------------------|
D |--------------------------------|--------------------------------|
A |--------------------------------|--------------------------------|
E |-4---------x-----4-----4-4---4--|-6--------6--------4-------4----|


G |--------------------------------|
D |-------5----3-------------------|
A |--------------5^3---5-----------|
E |-1---------------6-------4---6--|

Verse
G |--------------------------------|--------------------------------|
D |--------------------------------|-------------------7^5-5--------|
A |-1-----1-----1-------1-^-3---3--|-5-----5-----5-----------8---5--|
E |--------------------------------|--------------------------------|

G |--------------------------------|--------------------------------|
D |--------------------------------|--------------------------------|
A |-1-----1-----1-------1-^-3---5--|-3-----3-----3-----1^3---5---3--|
E |--------------------------------|--------------------------------|

G |--------------------------------|--------------------------------|
D |--------------------------------|-------------------------5------|
A |-1-----1-----1------------------|-3-----3-----3-----3------------|
E |---------------------3---1---3--|--------------------------------|

G |--------------------------------|--------------------------------|
D |--------------------------------|-------------------------5------|
A |-1-----1-----1------------------|-3-----3-----3----(3)--------3--|
E |---------------------3---1---3--|--------------------------------|

Order:
[00:00] Intro
[00:03] Chorus (Skip last bar)
[00:12] Chorus
[00:23] Verse
[00:46] Chorus
[01:33] Verse
[01:56] Chorus (Mute first bars and Don't Play Last Bar)
[02:04] Chorus (Do Last Bars 2 times)
329 exibições

0 comentários

Mostrar mais comentários

Conseguiu tocar?

0 Tocaram 0 Ainda não

Grave um vídeo tocando Sister Im A Poet e mande pra gente!

00:00 / 00:00
outros vídeos desta música
repetir qualidade Automático
Outros vídeos desta música
00:00 / 00:00
Automático

Cifra Club Pro

Aproveite o Cifra Club com benefícios exclusivos e sem anúncios
7 dias grátis
Cifra Club Pro
Aproveite o Cifra Club com benefícios exclusivos e sem anúncios
7 dias grátis
OK