Cifra Club

Doctor Feelgood

Mötley Crüe

Cifra: Principal (violão e guitarra)
tom: E

Date: Sun, 26 Apr 1998 01:08:49 PDT
From: Juan Sjobohm 
Subject: m/motley_crue/*


Dr. Feelgood
>From the album "Dr. Feelgood" 1989, Elektra Entertainmet.
Words and music: Mick Mars, Nikki Sixx.
Posted by Juan Sjobohm, *

INTRO:

 rythm figure 1.                                          end rhythm fig
1
-|---|---------------------------------|----------------------------------|
-|---|---------------------------------|----------------------------------|
-|---|---------------------------------|----------------------------------|
-|---|---------------------------------|----------------------------------|
-|---|---------------------------------|----------------------------------|
-|x\-|-0-0-0-0---0---0---0---0--0--0--0|-0--0--0---0--0--0--0--0--0--0----|

x2
w/rythm fig 1.
-|------------------------------------------|------------------------------|
-|------------------------------------------|------------------------------|
-|------------------------------------------|*7-7-7-7-7-7-7-7-5-5-5-5-5-5-5|
-|------------------------------------------|-----------------5-5-5-5-5-5-5|
-|-12--12---12-----12-12-12-----12-12-12-12-|------------------------------|
-|------------------------------------------|------------------------------|
       *natural harmonics
throughout
                                               w/tremelo bar
-|-------------------------------------------------------------------------|
-|---------------------------------------------7-7-7-7-7-7-7-7-------------|
-|-7-7-7-7-7-7-7-7---12-12-12-12-12-12-12-12---7-7-7-7-7-7-7-7-------------|
-|-------------------12-12-12-12-12-12-12-12-------------------------------|
-|-------------------------------------------------------------------------|
-|-------------------------------------------------------------------------|
            

-|-------------------------------------------------------------------------|
-|-------------------7-7-7-7-7-7-7-7---------------------------------------|
-|-5-5-5-5-5-5-5-5---7-7-7-7-7-7-7-7--12-12-12-12-12-----------------------|
-|-5-5-5-5-5-5-5-5--------------------12-12-12-12-12-----------------------|
-|-------------------------------------------------------------------------|
-|------------------------------------------------------0--0---0\----------|
          

rythm fig 2.                                                 end rythm
fig 2.
-|---------------------------------------------------------3----3----------|
-|-----------------------3----2----------------------------3----3----------|
-|-----------------------2----2--------------------------------------------|
-|-------------------------------------------------------------------------|
-|-------------------------------------------------------------------------|
-|----0-0-0-2-2-3-3-4-5----------------0-0-0-2-2-3-3-4-5-------------------|

x4
VERSE
rhythm fig 3
-|-------------------------------------------------------------------------|
-|-------------------------------------------------------------------------|
-|-2-------2--2-----------------------------2------------------------------|
-|-2-------2--2-----------------------------2--------2---------------------|
-|-0-------0--0-----------------------------0--------2---------------------|
-|------3----------------------------------------3---0---------------------|
  Rat tailed jimmy is a second hand hood, he deals out in hollywood

-|-------------------------------------------------------------------------|
-|-------------------------------------------------------------------------|
-|-2-------2--2-----------------------------2------------------------------|
-|-2-------2--2-----------------------------2--------2---------------------|
-|-0-------0--0-----------------------------0--------2---------------------|
-|------3----------------------------------------3---0---------------------|
  Got a 65   chevy   primered    flames     traded for some powdered
goods

-|-------------------------------------------------------------------------|
-|-------------------------------------------------------------------------|
-|-2-------2--2------------------------2-----------------------------------|
-|-2-------2--2------------------------2--------2--------------------------|
-|-0-------0--0-----0---0---0---0------0--------2--------------------------|
-|------3-----------------------------------3---0-----0---0---0---0--------|
  Jigsaw Jimmy he's runnin a gang  but i hear he's   doin  O.K.

                                                           End rhythm
fig 3
-|-------------------------------------------------------------------------|
-|-------------------------------------------------------------------------|
-|-2-------2--2-------------2----------2-----------------------------------|
-|-2-------2--2-------------2----------2--------2--------------------------|
-|-0-------0--0-----0---0---0---0------0--------2--------------------------|
-|------3-----------------------------------3---0-----0---0---0---0--------|
 Got a cozy little job , sells to the mexican mob pakages of canycaine

CHORUS:
-|----------------------------------------------------------------3----3---|
-|-----------------------3----2-----------------------------------3----3---|
-|-----------------------2----2--------------------------------------------|
-|-------------------------------------------------------------------------|
-|-------------------------------------------------------------------------|
-|0-0-0-2-2-3-3-4-5-------------------0-0-0-2-2-3-3-4-5--------------------|
  Hes the one they call dr feelgood   hes the one that makes ya feel
alright

-|---------------------------------------------------------3----3----------|
-|-----------------------3----2----------------------------3----3----------|
-|-----------------------2----2--------------------------------------------|
-|-------------------------------------------------------------------------|
-|-------------------------------------------------------------------------|
-|--0-0-0-2-2-3-3-4-5-------------------0-0-0-2-2-3-3-4-5------------------|
   Hes the one they call dr feelgood

Then 2nd verse w/rythm fig 3 and chorus

-----------------------------------------------------------------------
RYTHM FIG 4.
-|--------------------------------------------------------------------|
-|--------------------------------------------------------------------|
-|---------------------------9\---------------------------------------|
-|-5-----------7-------------9\---------------------------------------|
-|-5-----------7-------------7\---------------------------------------|
-|-3-----------5---------------------0---0---0---0---0---0---0---0----|
  Ive got one thing youll understand          (dr feelgood)

-|--------------------------------------------------------------------|
-|--------------------------------------------------------------------|
-|---------------------------9\---------------------------------------|
-|-5-----------7-------------9\---------------------------------------|
-|-5-----------7-------------7\---------------------------------------|
-|-3-----------5---------------------0---0---0---0---0---0---0---0----|
  He's not what you'd call a glamourous man   (dr feelgood)

-|--------------------------------------------------------------------|
-|--------------------------------------------------------------------|
-|---------------------------9\---------------------------------------|
-|-5-----------7-------------9\---------------------------------------|
-|-5-----------7-------------7\---------------------------------------|
-|-3-----------5---------------------0---0---0---0---0---0---0---0----|
  Got one thing that easily understood        (dr feelgood)

-|-----------------------------------------------------------------------|
-|-----------------------------------------------------------------------|
-|-----------------------------------------------------------------------|
-|-5----------------7----------------9-----------------------------------|
-|-5----------------7----------------9-----------------------------------|
-|-3----------------5----------------7-----------------------------------|
  He's the only one they call dr feelgood

1st solo:
-|-12b-----12b---12-------------------------------------------17b-----b---|
-|-15b-----15b------15-15-14-13-12----------------------------------------|
-|---------------------------------12-14p12-------------------------------|
-|------------------------------------------14-12h14p12-------------------|
-|------------------------------------------------------14----------------|
-|------------------------------------------------------------------------|

-|--15*---------------------------------------------------------------------|
-|---------x------x------x---------x--------x----------x------4p2p0\--------|
-|--------------------------------------------------------------------------|
-|--------------------------------------------------------------------------|
-|--------------------------------------------------------------------------|
-|--------------------------------------------------------------------------|
              
00:00 / 00:00
Outros vídeos desta música
Repetir
Outros vídeos desta música
Compositor não encontrado.
2.620 exibições
    • ½ Tom
    • A
    • Bb
    • B
    • C
    • Db
    • D
    • Eb
    • E
    • F
    • F#
    • G
    • Ab
  • Adicionar à lista

    0 comentários

    Ver todos os comentários

    Conseguiu tocar?

    0 Tocaram 0 Ainda não

    Grave um vídeo tocando Doctor Feelgood e nos envie!

    00:00 / 00:00

    Cifra Club Pro

    Aproveite o Cifra Club com benefícios exclusivos e sem anúncios
    Cifra Club Pro
    Aproveite o Cifra Club com benefícios exclusivos e sem anúncios
    OK