Cifra Club

Kickstart My Heart Live

Mötley Crüe

Tab de baixo: Principal
Album:Decade of Decadence
Bassist:Nikki Sixx
Tabber:Dev Fuld

This is an awesome live track, and is slightly different than the original. 

Key:
x = times a number
* = let it ring

Intro (bass goes along with drum)
G:----------------------------------------|---------------|----------------------|
D:----------------------------------------|---------------|----------------------|
A:------------------------------------3x12|------------3x9|----------1---------3*|
E:3--3--3--3--3-3--3-3333-1-2-3x8-1x8-----|1-2-3x8-1x8----|0-1-2-0-1---3x8-1x8---|

Verse
G:---------------------------------------------------------|
D:---------------------------------------------------------|
A:------------------1*----3x12-------------------1*----3x12|
E:1-2-3x12-1-2-3x16----1*------1-2-3x12-1-2-3x16----1*-----|

Pre-Chorus
G:--------|--------|
D:--------|--------|
A:--------|--------|
E:1-2-3-3*|1-2-3-3*|

Chorus
G:--------------------------------------|-------------------------------------------|
D:--------------------------------------|-------------------------------------------|
A:--------3x16---------3x9-----------1--|--------3x12-------------1x25-----------1--|
E:3x8-1x8------3x8-1x8-----0-1-2-0-1---3|3x8-1x8------1-2-3x8-1x8------0-1-2-0-1---3|

After Chorus
G:-----|--------|--------|
D:-----|--------|--------|
A:-----|--------|--------|
E:1-2-3|1-2-3x12|1-2-3x12|

Verse

Pre-Chorus

Chorus
G:-----------------------------------------------------------------|
D:-----------------------------------------------------------------|
A:--------3x16---------3x9-----------1---------3x16---------1x16---|
E:3x8-1x8------3x8-1x8-----0-1-2-0-1---3x8-1x8------3x8-1x8------5*|

Bass bridge into slow part
G:------------------|---------------|
D:5--7-5---5--------|---------------|
A:-------7---7-6-5-3|7-5---5--------|
E:------------------|----7---7-6-5-4|

Slow Part
G:--------|--------|--------|--------|------------------|-------|
D:--------|--------|--------|--------|------------------|-------|
A:------3*|------3*|------3*|------3*|----------1------3|-----3*|
E:3*-1*---|3*-1*---|3*-1*---|3*-1*---|0-1-2-0-1---3--1--|3--1---|

G:----------------------------------|---------------------------------|
D:----------------------------------|---------------------------------|
A:------------------3--3-3-3-3-3-3-3|------------------3-3-3-3-3-3-333|
E:3--3-3-3-1--1-1-1-----------------|3--3-3-3-1--1-1-1----------------|

Chorus until end part

End:
G:-------------------------------------------------------------------|-|
D:-------------------------------------------------------------------|-|
A:-------------------------------------------------------------------|-|
E:1-2-3x12-1-2-3x12-1-2-3-1-2-3-1-2-3-1---3xalot-5xalot-6xafew-8xalot|3|

That's it. This song is so rockin, and it's pretty fast. I already put it in order for you 
so I made it even easier. Any questions or comments, e-mail me at *
Compositor não encontrado.
884 exibições

0 comentários

Ver todos os comentários

Conseguiu tocar?

0 Tocaram 0 Ainda não

Grave um vídeo tocando Kickstart My Heart Live e nos envie!

00:00 / 00:00
Outros vídeos desta música
Repetir Qualidade Automático
Outros vídeos desta música
00:00 / 00:00
Automático

Cifra Club Pro

Aproveite o Cifra Club com benefícios exclusivos e sem anúncios
Cifra Club Pro
Aproveite o Cifra Club com benefícios exclusivos e sem anúncios
OK