Cifra Club

Look's That Kill

Mötley Crüe

Cifra: Principal (violão e guitarra)
tom: C
Introdução:
(Riff Principal)
   P.M.  . .   . .   . .   . .
E|----------------------------------------------------
B|----------------------------------------------------
G|-----9-----9-----7-----7-----7\6--------------------
D|-----7-----7-----5-----5-----5\4--------------------
A|-0-0---0-0---0-0---0-0---0-0------------------------
E|----------------------------------------------------

(Guitarra Solo)
E|-------22b24~~--------------------------------------
B|-5~-------------------------------------------------
G|-2~-------------------------------------------------
D|-2~-------------------------------------------------
A|-0~-------------------------------------------------
E|----------------------------------------------------


Primeira Parte:

(Riff Principal)

Now listen up
She's razor sharp
If she don't get her way
She'll slice you apart

Now she's a cool, cool black
Moves like a cat
If you don't get her game
 F5
You might not make it back

Primeiro Refrão:
  H.A
E|----------------------------------------------------
B|--------------------------------------6-6-6-6-6-6-6-
G|-------5---5-----5---5-----5---5~-----5-5-5-5-5-5-5-  (2x)
D|-2b----2-0-3-----3-0-4-----4-0-5~-----3-3-3-3-3-3-3-
A|----0---------0---------0---------------------------
E|----------------------------------------------------


She's got the looks that kill
That kill
She's got the looks that kill
That kill
She's got the looks

(She's got the look's kill)
(She's got the look's kill)

Segunda Parte:

(Riff Principal)

Now she's bulletproof
Keeps her motor clean and believe me, you
She's a number thirteen

The clock strikes midnight
She's lookin' louder and louder
She's gonna turn on our juice, boy
        F5
So she turns on the power

Segundo Refrão:

She's got the looks that kill
That kill
She's got the looks that kill
That kill
She's got the looks

(She's got the look's kill)
(She's got the look's kill)

Ponte:
E|----------------------------------------------------
B|-10--9--8--13-12-x-x--8--7--6--10-9-x-x-------------
G|-9---9--7--12-12-x-x--7--7--5--9--9-x-x-------------
D|-7---7--5--12-12-x-x--5--5--3--9--9-x-x-------------
A|----------------------------------------------------
E|----------------------------------------------------

E|----------------------------------------------------
B|-6--5--3--8-7-x-x-----------------------------------
G|-5--4--2--7-7-x-x-----------------------------------
D|-3--2--0--7-7-x-x-----------------------------------
A|----------------------------------------------------
E|----------------------------------------------------


(She's got the look's kill)
(She's got the look's)

Solo:
(Parte 1)
   P.M.. . . . . . . .
E|----------------------------------------------------
B|---------------------6-5-8-5-8b10r8p5---------------
G|-----------------5-4--------------------------------
D|-------------7-6------------------------------------
A|-------5-8-7----------------------------------------
E|-3-8-7----------------------------------------------

(Parte 2)
                                            H.A
E|----------------------------------------------------
B|-5h8p5h8p5...-8b10-5h8p5---5------------------------
G|-------------------------8---8-5-7b9r7p5--7b9r7p5---
D|----------------------------------------------------
A|----------------------------------------------------
E|----------------------------------------------------

   H.A          .
E|---------------------------------------------------
B|---------------------------------------------------
G|-7b9r7p5--------------------------------------------
D|---------7~~----------------------------------------
A|--------------5b~~----------------------------------
E|---------------------------------------------------

(Parte 3)
   H.A  .  .            .    .   .  .  .
E|----------------------------------------------------
B|----------------------------------------------------
G|-7b8--7--7b8-7p5------7b8--7--b8--7--7b8~~----------
D|-----------------7~~--------------------------------
A|----------------------------------------------------
E|----------------------------------------------------

(Parte 4)
E|-----5----------------------------------------------
B|-------5-8p5---5------------------------------------
G|-5b7---------8---8-7p5---5--------------------------
D|-----------------------7---7-5----------------------
A|----------------------------------------------------
E|----------------------------------------------------
                                    H.A
E|----------------------------------------------------
B|----------------------------------------------------
G|----------------------------------------------------
D|-7p5---5--------------------------------------------
A|-----7---7-6-5-3-5-5p3---3--------------------------
E|-----------------------5---5~~----3b~~--------------

(Parte 5)
E|-------22b24~~--------------------------------------
B|-5~-------------------------------------------------
G|-2~-------------------------------------------------
D|-2~-------------------------------------------------
A|-0~-------------------------------------------------
E|----------------------------------------------------


Terceira Parte:

Now listen up
She's razor sharp
If she don't get her way
She'll slice you apart

Now she's a cool, cool black
Moves like a cat
If you don't get her game
 F5
You might not make it back

Terceiro Refrão:

She's got the looks that kill
That kill
She's got the looks that kill
That kill
She's got the looks
(She's got the look's kill)
(She's got the look's kill)

(Ponte)

(Riff Principal)

(She's got the look's kill)
(She's got the look's kill)
(She's got the look's kill)
(She's got the look's kill)
Composição de Nikki Sixx
Colaboração e revisão:
  • Vinícius Dias
  • Taino Vieira
23.051 exibições
    • ½ Tom
    • A
    • Bb
    • B
    • C
    • Db
    • D
    • Eb
    • E
    • F
    • F#
    • G
    • Ab
  • Adicionar à lista

    0 comentários

    Ver todos os comentários

    Conseguiu tocar?

    3 Tocaram 0 Ainda não

    Grave um vídeo tocando Look's That Kill e nos envie!

    00:00 / 00:00
    Outros vídeos desta música
    Repetir Qualidade Automático
    Outros vídeos desta música
    00:00 / 00:00
    Automático
    Capítulos
    • Início
    • Afinação
    • Tocando a música
    • Configuração do Efeito
    • Tocando Introdução
    • Ensinando Riff Principal
    • Ensinando Introdução - Guitarra Solo
    • Acorde da Primeira Parte
    • Tocando Primeira Parte
    • Ensinando Primeira Parte
    • Tocando Refrão
    • Ensinando Refrão
    • Tocando Segunda Parte e Segundo Refrão
    • Ensinando Ponte
    • Tocando Solo
    • Ensinando Solo
    • Tocando Terceira Parte
    • Encerramento

    Cifra Club Pro

    Aproveite o Cifra Club com benefícios exclusivos e sem anúncios
    Cifra Club Pro
    Aproveite o Cifra Club com benefícios exclusivos e sem anúncios
    OK