Cifra Club

Ten Seconds To Love Solo

Mötley Crüe

Tab de baixo: Principal
Album:http://*?v=UQNizFVs6mw
Bassist:Nikki Sixx
Tabber:Dev Fuld

This is honestly the best version of Ten Seconds To Love that I've ever heard and/or
I tabbed the bass solo, which starts around 2:55 in the video posted under "Album".
live in Tacoma, 1987. Enjoy.

Key:
x = Mute
* = Let it ring
/ = Slide up
... = Etc

From 2:55

F:--------------------------------------------------------|
C:------10------------------------------------------------|
G:10-12-----12-10-12--12-12-12-0-0-0-0-0-0-0-0------------|
D:---------------------------------------------0-0-3-3-4-4|

F:------------------------------------------------------|
C:--------------------------10--------------------------|
G:0-0-0-0-0-0-0-0-0-0-10-12----12-10-0-0-0-0-0-0-0-0-0-0|
D:------------------------------------------------------|

F:-------------------------------------------------|
C:-------------------------------------------------|
G:10-12-10----10----0-0-0-0-0-0-0-0-0-0------------|
D:---------12----12---------------------0-0-3-3-4-4|

F:-------------------|
C:-------------------|
G:0-0-0-0-0-0-0-0-0-0|
D:-------------------|

F:-------------------------------------------------------------|
C:------10-----------------------------------------------------|
G:10-12----12-10/12--12-12-10/12-12-10/12--12-10----10----10---|
D:-----------------------------------------------12----12----12|

F:--------------------------------------------------------|
C:--------------------------------------------------------|
G:0-0-0-0-0-0-0-0-0-0-------------0-0-0-0-0-0-0-0-0-0-0...|
D:--------------------0-0-3-3-4-4-------------------------|

"Go get sick for em' boy"
F:---------------------------------------------|
C:---------------------------------------------|
G:10/12--12-12--12-10----10/12--12-12--12-10---|
D:--------------------12---------------------12|

F:---------------------------------------------|
C:---------------------------------------------|
G:10/12--12-12--12-10----10/12--12-12--12-10---|
D:--------------------12---------------------12|

F:-----------------------------------------------|
C:------------------------------------------10---|
G:10-12-10----10-12-10----10-12-10----10-12----12|
D:---------12----------12----------12------------|

F:-----------------------------------------------|
C:-----------------------------------------------|
G:10-12-10----10-12-10----10-12-10----10-12-10---|
D:---------12----------12----------12----------12|

F:--------------------------------------------------------------|
C:------10*--10-----------------------10*--12-10----10----------|
G:10-12---------12-10-12--10----10-12------------12-----12-10-12|
D:---------------------------12---------------------------------|

F:-------------------------------------------------------------|
C:12-10----10--------------------------------------------------|
G:------12-----12-10-12--12-12-10----10------------------------|
D:--------------------------------12----12-11-12-12-11-11-10-10|

F:--------------|--------|---------------------------|
C:--------------|--------|---------------------------|
G:--------------|--------|---------------------------|
D:0-1-2-5--2-2-3|5--5-2-3|5--5-2-3-4-5--5-2-2-3-3-4-5|

Mute's here
F:--------------------------------------|
C:--------------------------------------|
G:--------------------------------------|
D:x--x--xxx--xxx-xxxxx-xxxxx-xxxxx-xxxxx|

F:--------|R|------------|R|-----|
C:--------|E|------------|E|-----|
G:--------|S|------------|S|-----|
D:2-5--2-3|T|2-3-5--5-2-3|T|2-3-5|

Fool around for 25 seconds...

*CRASH*

That's it! Looks more complicated than it is. It is mostly patterns, etc... So play it
attitude, and rock on! Any questions or comments, e-mail me at *
Compositor não encontrado.
902 exibições

0 comentários

Ver todos os comentários

Conseguiu tocar?

0 Tocaram 0 Ainda não

Grave um vídeo tocando Ten Seconds To Love Solo e nos envie!

00:00 / 00:00
Outros vídeos desta música
Repetir Qualidade Automático
Outros vídeos desta música
00:00 / 00:00
Automático

Cifra Club Pro

Aproveite o Cifra Club com benefícios exclusivos e sem anúncios
Cifra Club Pro
Aproveite o Cifra Club com benefícios exclusivos e sem anúncios
OK