Cifra Club

The Dirt (Est. 1981) (feat. Machine Gun Kelly)

Mötley Crüe

Cifra: Principal (violão e guitarra)
tom: Eb (forma dos acordes no tom de E) Afinação: Eb Ab Db Gb Bb Eb
[Intro] E

E|--------------------------------|
B|-------8-7-----8----------------|
G|---8-9-----8-9------------------|
D|--------------------------------|
A|--------------------------------|
E|--------------------------------|

[Ponte]

E|--------------------------------|
B|--------------------------------|
G|--------------------------------|
D|--------------------------------|
A|--8h7---5---5h7-2---------------|
E|--6h5-0-3-0-3h5-0---------------|

E5
The sex, the cash, the fame

Living out a life you can't deny
E5
The drugs, the lies, the pain
                                  E5
Will never get enough to satisfy
C5                                 A5
They never found a way to break us down
D5
That's why we're still around

          E
Gimme the dirt
               A
Just gimme the dirt
           D      A            E
Just gimme what I want 'til it hurts
               E
Just gimme the dirt
          A
Gimme the dirt
      D              A                E  
Let's take it to the top and watch it burn


E5
The fight, the hate, the game

Not afraid to stab you from behind
E5
The years, the months, the days
                                  E5
Never gave a fuck about the time
C5                                 A5
They never found a way to break us down
D5
That's why we're still around

          E
Gimme the dirt
               A
Just gimme the dirt
           D      A            E
Just gimme what I want 'til it hurts
               E
Just gimme the dirt
          A
Gimme the dirt
      D              A                E  
Let's take it to the top and watch it burn

[Ponte]

E|--------------------------------|
B|--------------------------------|
G|--------------------------------|
D|--------------------------------|
A|--8h7---5---5h7-2---------------|
E|--6h5-0-3-0-3h5-0---------------|

E
More sex, more tats, more blood, more pain
More threats, more theft, torn jeans, cocaine
Midnight ride down the sunset strip
New bike with the plate read the 666

E
Give me more sex, more tats, more blood, more pain
More threats, more theft, torn jeans, cocaine
More pretty strippers with the big red lips
Making big tips, showing off the nice big tits, ha

[Solo]

E|----------------------------------------------------------------|
B|----------------------------------------------------------------|
G|----------------------------------------------------------------|
D|-5--------------------------------------------------------------|
A|-3-7-------------------------5h7-7-------------------------5h7-7|
E|---5-3p0-0-5p0-0-6p0-0-7p0-0-------3p0-0-5p0-0-6p0-0-7p0-0------|

          E
Gimme the dirt
               A 
Just gimme the dirt
           D      A            E
Just gimme what I want 'til it hurts
          E
Gimme the dirt
               A  
Just gimme the dirt
           D      A            E
Just gimme what I want 'til it hurts
               E
Just gimme the dirt
          A
Gimme the dirt
      D              A                E 
Let's take it to the top and watch it burn

[Ponte]

E|--------------------------------|
B|--------------------------------|
G|--------------------------------|
D|--------------------------------|
A|--8h7---5---5h7-2---------------|
E|--6h5-0-3-0-3h5-0---------------|



Give me more sex, more tats, more blood, more pain
More threats, more theft, torn jeans, cocaine
More pretty strippers with the big red lips
Making big tips, showing off the nice big tits, ha

E5
00:00 / 00:00
Outros vídeos desta música
Repetir
Outros vídeos desta música
Composição de Sahaj Ticotin
Colaboração e revisão:
  • Junior Ferreira
774 exibições
    • ½ Tom
    • A
    • Bb
    • B
    • C
    • Db
    • D
    • Eb
    • E
    • F
    • F#
    • G
    • Ab
  • Adicionar à lista

    0 comentários

    Ver todos os comentários

    Conseguiu tocar?

    0 Tocaram 0 Ainda não

    Grave um vídeo tocando The Dirt (Est. 1981) (feat. Machine Gun Kelly) e nos envie!

    00:00 / 00:00

    Cifra Club Pro

    Aproveite o Cifra Club com benefícios exclusivos e sem anúncios
    Cifra Club Pro
    Aproveite o Cifra Club com benefícios exclusivos e sem anúncios
    OK