Cifra Club

Too Young To Fall In Love

Mötley Crüe

Tab de baixo: Versão 2
Song structure
intro
verse
pre-chorus
chorus
verse
pre-chorus
chorus
solo
bridge
verse
pre-chorus
chorus
outro
this has been the hardest tab to make so far out of the three i have done.  Usually i
find songs with similar rythem guitar/bass parts and work from the rythem guitar tabs.
musicians never take a day off, so i decided to do somthing a little harder.  Another 
song yet to be tabbed.

intro(drum, and guitar intro)
|-----------------------------------------------------------------------|
|-----------------------------------------------------------------------|
|-----------------------------------------------------------------------|
|-----------------------------------------------------------------------|

|-----------------------------------------------------------------------|
|------5-------------3----------1----------0-----0-1-0-0-0--------------|
|-----------------------------------------------------------------------|
|-----------------------------------------------------------------------|
verse
|-----------------------------------------------------------------------|
|------5---5---5---5--3-4-5-5--------5---5---5---5--3-4-5-5-------------|
|-----------------------------------------------------------------------|
|-----------------------------------------------------------------------|
you say our love is like dinamite...........
Pre chorus
|--------------------------------------|
|------0-0--1-1-0-0-1-1-0-1-0-1-0-1-10-|
|--------------------------------------|
|--------------------------------------|
well your killin me....

Chorus

|-----------------------------------------------------------------------|
|------5-------------3----------1----------0-----0-1-0-0-0--------------|
|-----------------------------------------------------------------------|
|-----------------------------------------------------------------------|

|-----------------------------------------------------------------------|
|------5-------------3----------1----------0-----0-1-0-0-0--------------|
|-----------------------------------------------------------------------|
|-----------------------------------------------------------------------|

Solo

|------------------------------------------------------------------------|
|------------------------------------------------------------------------|
|-----3-333-333-33-5-555-555-55-3-3-333-333-33-5-555-555-55-3-333-333-33-|
|------------------------------------------------------------------------|

|--------------------------------|
|--------------------------------|
|--5-555-555-55------------------|
|--------------------------------|

Bridge(no bass)
|-----------------------------------------------------------------------|
|-----------------------------------------------------------------------|
|-----------------------------------------------------------------------|
|-----------------------------------------------------------------------|
00:00 / 00:00
Outros vídeos desta música
Repetir
Outros vídeos desta música
Composição de Nikki Sixx
251 exibições

0 comentários

Ver todos os comentários

Conseguiu tocar?

0 Tocaram 0 Ainda não

Grave um vídeo tocando Too Young To Fall In Love e nos envie!

Entre para oCifra Club PRO

Tenha acesso a benefícios exclusivos no App e no Site

  • Chega de anúncios

  • Prioridade de compra em lançamentos

  • Mais recursos no app do Afinador

  • Atendimento Prioritário

  • Descontos nos produtos Cifra Club

  • Ajude a produzir mais conteúdo

00:00 / 00:00

Cifra Club Pro

Aproveite o Cifra Club com benefícios exclusivos e sem anúncios
Cifra Club Pro
Aproveite o Cifra Club com benefícios exclusivos e sem anúncios
OK