Cifra Club

Too Young To Fall In Love

Mötley Crüe

Tab de baixo: Versão 3
Music and Lyrics: Nikki Sixx
Bassist: Nikki Sixx
Tabber: Amin Harchaoui [GER]

Hey folks!
This is my first tab, so be patient since I am not that used to the typcial structure! I
this one because it is my favourite song by the Crue and I consider the bass line very
It was very difficult tabbing it, because you can utterly hear what Nikki plays! That's 
reason why I am not 100% sure about some licks but I think you will be pleased. You
to tune down your bass, beacuse other wise you will not be able to play the Verse and 
the way Nikki played it!

Note: The --space-- I set between the numbers has to be regarded in relation to the
there is no general rule for 1/4, 1/2 notes etc.!

Guitar Intro (0:00-0:16)


Part I: Kick-in 0:16-0:18

|--------------------------------------|
|--------------------------------------|
|-(7)-7-7-7-7---5-5-5-8-8-8-7--3-2-----|
|----------------------------------3---|

Part II: 0:19-0:25

[Note: I think at the beginning of this song he plays quarter notes, but you can play
Chorus (Part VI) instead, if you like to]

|-------------|-------------|-------------|
|-------------|-------------|-------------|
|-------------|-------------|-------------|
|-5--5--5--5--|-3--3--3--3--|-1--1--1--1--|

Part III: 0:26-0:31 [Part II is included]

|------------------------------------|------------------------------------|
|------------------------------------|------------------------------------|
|-(7)-7-7-7-7---5-5-5-8-8-8-7--7-7-7-|-7-7-7-7---5-5-5-8-8-8-7--3-2-------|
|------------------------------------|------------------------------3-----|


Part IV: Verse 0:32-0:40

|-----------------------------|-----------------------------|
|-----------------------------|-----------------------------|
|-----------------------------|-----------------------------|
|-5--5-5-5-5--5-5-5-5-5-5--3--|-1--1-1-1-1--1-1-1-1-1-1--3--|

|-----------------------------|-----------------------------|
|-----------------------------|-----------------------------|
|-----------------------------|-----------------------------|
|-5--5-5-5-5--5-5-5-5-5-5--3--|-1--1-1-1-1--1-1-1-1-1-1--1--|


Part V: Bridge 0:41-0:48 [Note: That was so evil! I hope it is correct, but I couldn't
Play whatever you like, if you disagree, but it should sound orientalic. Check out the
you can hear it.]


|-------------------------------|------------------------------|
|-------------------------------|------9-10-9------------------|
|-7--7-7-7-7-7-7-8--8-8-8-8-8-8-|-7--7--------8-8--8-8-8-8-8-8-|
|-------------------------------|------------------------------|


[Note: You can choose between the two following options. The 1st one is regular, while
2nd a variation which closer to what Mick plays. Nikki plays the 2nd one on "Carnival of Sins"]

1st
|---------------------------|
|---------------------------|
|-7---8---7---8---7--8--10--|
|---------------------------|

2nd
|-----------------------------------------------|
|-----------------------------------------------|
|-7-5---8-7-5-7-5---8-7-5-7-5---8-7-5-7--8--10--|
|-----5-----------5-----------5-----------------|

Both followed by (0:49-0:50)

|---------------------|
|-79--9-9-9-7---------|
|------------9-7------|
|---------------------|


Part VI: Chorus 0:51-1:12 [Note: Very close to Part I but you play a gallop instead of 
notes]

|----------------------------|----------------------------|
|----------------------------|----------------------------|
|----------------------------|----------------------------|
|-5--5-5-5--5-5-5--5-5-5--5-5|-3--3-3-3--3-3-3--3-3-3--3-3|

|----------------------------|
|----------------------------|
|----------------------------|
|-1--1-1-1--1-1-1--1-1-1--1-1|

Part II
Part VI
Part Part III
Part IV
Part V
Part VI
Part II
Part VI

Part VII: Solo 1:48-2:08

2x
|------------------------------|-----------------------------|
|------------------------------|-----------------------------|
|-7--7-7-7--7-7-7--7-7--12--8--|-7--7-7-7--7-7-7--7-7--5--8--|
|------------------------------|-----------------------------|


2x only with a 1/4 G at the end instead of the last two notes
|-----------------------------|------------------------------|
|-----------------------------|------------------------------|
|-5--5-5-5--5-5-5--5-5--5--8--|-7--7-7-7--7-7-7--7-7--12--8--|
|-----------------------------|------------------------------|


Part VIII: Interlude 2:09-2:17

2x [Note: You slide between 5 and 17]
|-----------------------------|
|-----------------------------|
|-----------------------------|
|5==17==5==17==|5==17==5--1-3-|


You got it! I think he plays the following Verse in 1/4 but that's up to you. Any
or points to complain about ;): *
I hope you'll enjoy this the same as I did.
00:00 / 00:00
Outros vídeos desta música
Repetir
Outros vídeos desta música
Composição de Nikki Sixx
134 exibições

0 comentários

Ver todos os comentários

Conseguiu tocar?

0 Tocaram 0 Ainda não

Grave um vídeo tocando Too Young To Fall In Love e nos envie!

00:00 / 00:00

Cifra Club Pro

Aproveite o Cifra Club com benefícios exclusivos e sem anúncios
Cifra Club Pro
Aproveite o Cifra Club com benefícios exclusivos e sem anúncios
OK