Cifra Club

Shine

Mr. Big

Tab de baixo: Principal
[Intro]

Parte 1 de 2

G|----------------------------------------------|
D|----------------------------------------------|
A|-7-7-7-7--7-7-7-7-----------------------------|
E|-------------------7-7-7-7--7-7-7--7-7--------|

G|----------------------------------------------|
D|----------------------------------------------|
A|------------------------------------7---------|
E|-5-5-5-5--5-5-5-5--5-5-5-4-5-7--7h9-----------|

Parte 2 de 2

G|----------------------------------------------|
D|----------------------------------------------|
A|-7-7-7-7--7-7-7-7-----------------------------|
E|-------------------7-7-7-7--7-7-7-7-----------|

G|----------------------------------------------|
D|----------------------------------------------|
A|----------------------------------------------|
E|-5-5-5-5--5-5-5-5--5-4-5-2-2-4-5-7------------|

[Primeira Parte]

I never really feel quite right and I don't...

Parte 1 de 4

G|----------------------------------------------|
D|----------------------------------------------|
A|-7-7-7-7--7-7-7-7-----------------------------|
E|-------------------7-7-7-7--7-7-7-7-----------|

G|----------------------------------------------|
D|----------------------------------------------|
A|----------------------------------------------|
E|-5-5-5-5--5-5-5-5--5-5-5-5-5--4-5-7-----------|

Parte 2 de 4

G|----------------------------------------------|
D|----------------------------------------------|
A|-7-7-7-7--7-7-7-7-----------------------------|
E|-------------------7-7-7-7--7-7-7-7-----------|

G|----------------------------------------------|
D|----------------------------------------------|
A|----------------------------------------------|
E|-5-5-5-5--5-5-5-5--5-5-5-5--5-5-5-5-----------|

Parte 3 de 4

G|----------------------------------------------|
D|----------------------------------------------|
A|-7-7-7-7--7-7-7-------------------------------|
E|----------------7--7-7-7-7--7-7-7-------------|

G|----------------------------------------------|
D|----------------------------------------------|
A|-4-4-4-4--4-4-4-------------------------------|
E|----------------5--5-5-5-5--5-5-5-3-----------|

Parte 4 de 4 

G|----------------------------------------------|
D|-------------------------------------7-----7--|
A|----------------------------------------------|
E|-2-2-2-2--2-2-2-2--2-2-2-2-2-4-4--5----5-5----|

G|----------------------------------------------|
D|-------------------------9--------------------|
A|-------------------7-7h9----------------------|
E|-5--7--7-7-7-7--7h9---------------------------|

[Refrão 1]

Shine, shine down on me...

Parte 1 de 2 

G|----------------------------------------------|
D|----------------------------------------------|
A|-7-7-7-7--7-7-7-------------------------------|
E|----------------7--7-7-7-7--7-7-7-------------|

G|----------------------------------------------|
D|----------------------------------------------|
A|----------------------------------------------|
E|-5--5-5-5-5--5-5-5-5--5-5-5-5--5-5-5-5--------|

Parte 2 de 2

G|----------------------------------------------|
D|----------------------------------------------|
A|-7-7-7-7--7-7-7-------------------------------|
E|----------------7--7-7-7-7--7-7-7-------------|

G|----------------------------------------------|
D|----------------------------------------------|
A|-5--5-5-5--5-5-5-5--5-4-2-0-------------------|
E|----------------------------2-4-5-------------|

[Intro 2]

Parte 1 de 1

G|----------------------------------------------|
D|----------------------------------------------|
A|-7-7-7-7--7-7-7-7-----------------------------|
E|-------------------7-7-7-7--7-7-7-7-----------|

G|----------------------------------------------|
D|----------------------------------------------|
A|----------------------------------------------|
E|-5-5-5-5--5-5-5-7--5-5-5-5-5--7h9-7~~---------|

[Segunda Parte]

Maybe on your own you take a cautious step...

Parte 1 de 4

G|----------------------------------------------|
D|----------------------------------------------|
A|-7-7-7-7--7-7-7-7-----------------------------|
E|-------------------7-7-7-7--7-7-7-7-----------|

G|----------------------------------------------|
D|----------------------------------------------|
A|----------------------------------------------|
E|-5-5-5-5--5-5-5-5--5-5-5-5-5--4-5-7-----------|

Parte 2 de 4

G|----------------------------------------------|
D|----------------------------------------------|
A|-7-7-7-7--7-7-7-7-----------------------------|
E|-------------------7-7-7-7--7-7-7-7-----------|

G|----------------------------------------------|
D|----------------------------------------------|
A|----------------------------------------------|
E|-5-5-5-5--5-5-5-5--5-5-5-5--5-5-5-5-----------|

Parte 3 de 4

G|----------------------------------------------|
D|---------------9------------------------------|
A|-7-7--7-7-------------------------------------|
E|------------7----7-7-7-7-7-7------------------|

G|----------------------------------------------|
D|----------------------------------------------|
A|-4--4-4-4-4-4--4-2----------------------------|
E|-------------------5-5-5-4--5-5-5-3-----------|

Parte 4 de 4

G|----------------------------------------------|
D|----------------------------------------------|
A|----------------------------------------------|
E|-2-2-2-2--2-2-2-2--2-2-2-2-2-4-4--5-5-5-5-5---|

G|-----------------------------------------------|
D|----------9------9--------9-7-9----------------|
A|----------------------7h9----------------------|
E|-5-5-5-7----7-7----9---------------------------|

[Refrão 2]

Shine, shine down on me...

Parte 1 de 4 

G|----------------------------------------------|
D|----------------------------------------------|
A|-7-7-7-7--7-7-7-------------------------------|
E|----------------7--7-7-7-7--7-7-7-7-----------|

G|----------------------------------------------|
D|----------------------------------------------|
A|----------------------------------7-----------|
E|-5-5-5-5--5-5-5-5--5-5-5-4--5-5-----7---------|

Parte 2 de 4

G|----------------------------------------------|
D|----------------------------------------------|
A|-7-7-7-7--7-7-7-------------------------------|
E|----------------7--7-7-7-7--7-7-7-7-----------|

G|----------------------------------------------|
D|----------------------------------------------|
A|----------------------------------------------|
E|-5—5-5-5--5-5-5-4--5-5-5-4--5-5-4-2-----------|

Parte 3 de 4

G|----------------------------------------------|
D|----------------------------------------------|
A|-7-7-7-7--7-7-7-------------------------------|
E|----------------7--7-7-7-7--7-7-7-7-----------|

G|----------------------------------------------|
D|----------------------------------------------|
A|----------------------------------------------|
E|-5-5-5-5--5-5-5-5--5-5-5-5--5-5-4-5-----------|

Parte 4 de 4

G|----------------------------------------------|
D|----------------------------------------------|
A|-7-7-7-7--7-7-7-------------------------------|
E|----------------7--7-7-7-7--7-7-7-7-----------|

G|----------------------------------------------|
D|----------------------------------------------|
A|-5-5-5-5--5-5-5-5--5-5-5-5-0-2----------------|
E|----------------------------------------------|

[Solo de Guitarra e Baixo]

Parte 1 de 3

G|-11h13p11-11\9--9\6-6\4-4/6--6/9--------------|
D|----------------------------------------------|
A|----------------------------------------------|
E|----------------------------------------------|

G|------9-11-13-9-------------------------------|
D|-9h11-----------11-9--------------------------|
A|---------------------11p9\7--0-2--------------|
E|----------------------------------------------|

Parte 2 de 3

G|-16h18p16-16-----------------------9------9---|
D|-------------16h18p16-14-14-9-9h11---9-11-----|
A|----------------------------------------------|
E|----------------------------------------------|

G|----------------------------------------------|
D|----------------------------------------------|
A|-5-5-5-5--4-4-4-4--2-2-2-2--0-0-0-0-----------|
E|----------------------------------------------|

G|----------------------------------------------|
D|----------------------------------------------|
A|---------------------------2------------------|
E|-3-3-3-3--3-3-3-3--3h5-3h5---5-3-5------------|

Parte 3 de 3

G|----------------------------------------------|
D|----------------------------------------------|
A|----------------------------------------------|
E|-2-2-2-2--2-2-2-2--2-2-2-2-2-4-4--5-5--5-5-5--|

G|-----------------------------------------------|
D|--------------------9--------------------------|
A|----------------7-9----------------------------|
E|-5-5-5-7--9-7-9-------7------------------------|

[Refrão 3]

Shine, shine down on me...

Parte 1 de 5 

G|----------------------------------------------|
D|----------------------------------------------|
A|-7-7-7-7--7-7-7-------------------------------|
E|----------------7--7-7-7-7--7-7-7-------------|

G|----------------------------------------------|
D|----------7-----------------------------------|
A|----------------------4---4-6-----------------|
E|-5-5-5-5----5-5-4-5-7---7---------------------|

Parte 2 de 5

G|----------------------------------------------|
D|----------------------------------------------|
A|-7-7-7-7--7-7-7-------------------------------|
E|----------------7--7-7-7-7--7-7-7-------------|

G|----------------------------------------------|
D|----------------------------------------------|
A|-----------------------7-4-7-4-------7\-------|
E|-5-5-5-5--5-5-5-5--4h5---------7-5-5----------|

Parte 3 de 5

G|----------------------------------------------|
D|----------------------------------------------|
A|-7-7-7-7--7-7-7-------------------------------|
E|----------------7--7-7-7-7--7-7-7-------------|

G|----------------------------------------------|
D|----------------------------------------------|
A|---------------------------4------------------|
E|-5-5-5-5--5-5-5-5--5-4-5-7---7-5-4------------|

Parte 4 de 5

G|----------------------------------------------|
D|----------------------------------------------|
A|-7-7-7-7--7-7-7-------------------------------|
E|----------------7--7-7-7-7--7-7-7-------------|

G|----------------------------------------------|
D|----------------------------------------------|
A|----------------------------------------------|
E|-5--5-5-5-5--5-5-5-5--5-5-5-5--5-5-7-9--------|

Parte 5 de 5 

G|----------------------------------------------|
D|----------------------------------------------|
A|-7-7-7-7--7-7-7-------------------------------|
E|----------------7--7-7-7-7--7-7-7-------------|

G|----------------------------------------------|
D|-------------------7-9-6----------------------|
A|-------------------------9-7------------------|
E|-5-5-5-5--5-5-5-5------------9-7--------------|

G|----------------------------------------------|
D|----------------------------------------------|
A|-7-7-7-7--7-7-7-------------------------------|
E|----------------7--7-7-7-7--7-7-7-------------|

G|----------------------------------------------|
D|----------------------------------------------|
A|----------------------------------------------|
E|-5-5-5-5--5-5-5-5--5-5-5-5--5-5-5-5--0--------|
00:00 / 00:00
Outros vídeos desta música
Repetir
Outros vídeos desta música
Composição de Richie Kotzen / Richie Zito
Colaboração e revisão:
  • Reginaldo Costa
2.096 exibições

0 comentários

Ver todos os comentários

Entre para oCifra Club PRO

Tenha acesso a benefícios exclusivos no App e no Site

  • Chega de anúncios

  • Prioridade de compra em lançamentos

  • Mais recursos no app do Afinador

  • Atendimento Prioritário

  • Descontos nos produtos Cifra Club

  • Ajude a produzir mais conteúdo

00:00 / 00:00
Capítulos
  • Tocando a música
  • Apresentação / Equipamentos
  • Afinação
  • Tab - Introdução - Parte 1 de 2
  • Tab - Introdução - Parte 2 de 2
  • Tab - Primeira Parte - Parte 1 de 4
  • Tab - Primeira Parte - Parte 2 de 4
  • Tab - Primeira Parte - Parte 3 de 4
  • Tab - Primeira Parte - Parte 4 de 4
  • Dicas Refrão 1 - Introdução 2
  • Tab - Refrão 1 - Parte 1 de 2
  • Tab - Refrão 1 - Parte 2 de 2
  • Tab - Introdução 2
  • Dicas Segunda Parte - Refrão 2
  • Tab - Segunda Parte - Parte 3 de 4
  • Tab - Segunda Parte - Parte 4 de 4
  • Tab - Refrão 2 - Parte 1 de 4
  • Tab - Refrão 2 - Parte 2 de 4
  • Tab - Refrão 2 - Parte 3 de 4
  • Tab - Refrão 2 - Parte 4 de 4
  • Dicas Solo - Refrão final
  • Tab - Solo - Parte 1 de 3
  • Tab - Solo - Parte 2 de 3
  • Tab - Solo - Parte 3 de 3
  • Tab - Refrão 3 - Parte 1 de 5
  • Tab - Refrão 3 - Parte 2 de 5
  • Tab - Refrão 3 - Parte 3 de 5
  • Tab - Refrão 3 - Parte 4 de 5
  • Tab - Refrão 3 - Parte 5 de 5
  • Encerramento

Cifra Club Pro

Aproveite o Cifra Club com benefícios exclusivos e sem anúncios
Cifra Club Pro
Aproveite o Cifra Club com benefícios exclusivos e sem anúncios
OK