Cifra Club

Aprenda

Minha Juventude (Dedilhado Simples)

Mr. Gyn

Cifra: Principal (violão e guitarra)
Tom: G
E|--9-------------------|--------------------10-10-10-10-|-9-------------------9-----------|
B|------10-10-10--12-12-|-10-9-10------------------------|---10-10-10-12-12-12---12---12~--|
G|----------------------|----------11-11-11--------------|---------------------------------|
D|----------------------|--------------------------------|---------------------------------|
A|----------------------|--------------------------------|---------------------------------|
E|----------------------|--------------------------------|---------------------------------|


E|--9-------------------|--------------------10-10-10-10-|-9------------------------------|
B|------10-10-10--12-12-|-10-9-10------------------------|---10-10-10-12-12-10-9-10---10~-|
G|----------------------|----------11-11-11--------------|--------------------------------|
D|----------------------|--------------------------------|--------------------------------|
A|----------------------|--------------------------------|--------------------------------|
E|----------------------|--------------------------------|--------------------------------|


E|------9---------------------|-----------------10-10-10-10-9--|---------------------9-10-9------|
B|-10----10-10-10--12-12-12---|--------------------------------|---10-10-10-12-12-12---------12~-|
G|----------------------------|----11-11-11-11-----------------|---------------------------------|
D|----------------------------|--------------------------------|---------------------------------|
A|----------------------------|--------------------------------|---------------------------------|
E|----------------------------|--------------------------------|---------------------------------|

E|--9-------------------|--------------------10-10-10-10-|-9------------------------------|
B|------10-10-10--12-12-|-10-9-10------------------------|---10-10-10-12-12-10-9-10---10~-|
G|----------------------|----------11-11-11--------------|--------------------------------|
D|----------------------|--------------------------------|--------------------------------|
A|----------------------|--------------------------------|--------------------------------|
E|----------------------|--------------------------------|--------------------------------|


E|-----------------------10-10-10-10-9-|-------------------9----|
B|-9-9-9-9---10------------------------|-10-10-10-12-12-12---12-|
G|---------11---11-11-11---------------|------------------------|
D|-------------------------------------|------------------------|
A|-------------------------------------|------------------------|
E|-------------------------------------|------------------------|


E|--9---------------------|-----------------10-10-10-10-|-9-----------------------------|
B|------10-10-10--12-12-12|-----------------------------|---10-10-10-12-12-10-9-10~-----|
G|------------------------|--11-11-11-11-11-------------|-------------------------------|
D|------------------------|-----------------------------|-------------------------------|
A|------------------------|-----------------------------|-------------------------------|
E|------------------------|-----------------------------|-------------------------------|
Colaboração e revisão:
  • Fernando Viscki
7.841 exibições
    • ½ Tom
    • A
    • Bb
    • B
    • C
    • Db
    • D
    • Eb
    • E
    • F
    • F#
    • G
    • Ab
  • Adicionar à lista

    0 comentários

    Mostrar mais comentários

    Conseguiu tocar?

    5 Tocaram 1 Ainda não

    Grave um vídeo tocando Minha Juventude (Dedilhado Simples) e mande pra gente!

    00:00 / 00:00
    outros vídeos desta música
    repetir qualidade Automático
    Outros vídeos desta música
    00:00 / 00:00
    Automático

    Cifra Club Pro

    Aproveite o Cifra Club com benefícios exclusivos e sem anúncios
    Cifra Club Pro
    Aproveite o Cifra Club com benefícios exclusivos e sem anúncios
    OK