Cifra Club

Aprenda

Minha Juventude

Mr. Gyn

Tab de baixo: Principal
Parte q se faz com slaps
S = slaps


G|-----------------------------4s---------------------------7s---------------------4s-----------|
D|------------7s------------------------------4s------------------------7s----------------------|
A|-------------------02----------------------------55-----------------------22------------------|
E|----5-----------------------------2--------------------------5------------------------0--2----|

G|-----------------------------4s---------------------------7s---------------------4s-----------|
D|------------7s------------------------------4s------------------------7s----------------------|
A|-------------------02----------------------------55-----------------------22------------------|
E|----5-----------------------------2--------------------------5------------------------0-0-5---|

Base do trecho onde a música é mais rápida e mais cheia
G|----------------------------------------------------------------------------------------------|
D|----------------------------------------------------------------------------------------------|
A|-------------5-5-5---------2-2-2--------------------5-5-5---------2-2-2-----------------------| 
E|---2-2-2----------5-5-5--------2-0----------2-2-2--------5-5-5---------5-5-2-5-2-5-2-5--------|

G|----------------------------------------------------------------------------------------------|
D|----------------------------------------------------------------------------------------------|
A|-------------5-5-5---------2-2-2--------------------5-5-5---------2-2-2-----------------------| 
E|---2-2-2----------5-5-5--------2-0----------2-2-2--------5-5-5---------0--5-------------------|
Composição de Anderson Richards
Colaboração e revisão:
  • Wueliton Pont
4.677 exibições

0 comentários

Ver todos os comentários

Conseguiu tocar?

0 Tocaram 0 Ainda não

Grave um vídeo tocando Minha Juventude e nos envie!

00:00 / 00:00
Outros vídeos desta música
Repetir Qualidade Automático
Outros vídeos desta música
00:00 / 00:00
Automático

Cifra Club Pro

Aproveite o Cifra Club com benefícios exclusivos e sem anúncios
Cifra Club Pro
Aproveite o Cifra Club com benefícios exclusivos e sem anúncios
OK