Onde Estiver

Mr. Gyn

Composição de: Anderson Richards / Rodrigo Baiocchi
Intro 2x
G|------------------------------------------------------------
D|------------------------------------------------------------
A|-----9--7-7-7-8-9--9-------------9--7-7-7-8-9--9------------
E|--7------9---------------7-9--7------9-----------------7-9--
B|---------------------7-9-------------------------7-7-9------

Verso

Levanta daí...2x
G|------------------------------------------------------------
D|------------------------------------------------------------
A|-----9--7-7-7-8-9--9-------------9--7-7-7-8-9--9------------
E|--7------9---------------7-9--7------9-----------------7-9--
B|---------------------7-9-------------------------7-7-9------
Não adianta relembrar os poréns...2x
G|-----------------------------------------
D|-----------------------------------------
A|--7-7-7---7-7-7—-7~/9-9---9-9-9—-9h11/---
E|-----------------------------------------
B|-----------------------------------------

G|------------------------------------------
D|---------------------------------11-11-11--
A|7-7—7-—7~/9-9-9-11-11-11-13-13-13----------
E|-------------------------------------------
B|-------------------------------------------

G|-----------------------------------------
D|-----------------------------------------
A|--7-7---7-7-7—-7~/9-9---9-9-9—-9h11/-----
E|-----------------------------------------
B|-----------------------------------------

Que nos faz tremer ao nos ver...
G|-------------------------------------------
D|------------------------11-----------------
A|--7-7--7-7-7-7~/9-11-13--------------------
E|-------------------------------------------
B|-------------------------------------------

Refrão

Eu quero outro sim...
G|------------------------------------------------------------
D|------------------------------------------------------------
A|-----9--7-7-7-8-9--9-------------9--7-7-7-8-9--9------------
E|--7------9---------------7-9--7------9-----------------7-9--
B|---------------------7-9-------------------------7-7-9------


Levanta e vem...
G|------------------------------------------------------------
D|------------------------------------------------------------
A|-----6-7-7-7-8-9--9-------------9--7-7-7-8-9--9-------------
E|--------9---------------7-9--7------9-----------------7-9---
B|--9-------------------7-9-------------------------7-7-9-----

Onde estiver...4x
G|------------------------------------------------------------
D|------------------------------------------------------------
A|-----9--7-----------------9--7------------------------------
E|--7----------------7-9--7-----------------------------------
B|----------9-7---7-9--------------9--7-----------------------


2°a PARTE


G|------------------------------------------------------------
D|------------------------------------------------------------
A|-----9--7-7-7-8-9--9-------------9--7-7-7-8-9--9------------
E|--7------9---------------7-9--7------9-----------------7-9--
B|---------------------7-9-------------------------7-7-9------

Verso

Levanta daí...2x
G|------------------------------------------------------------
D|------------------------------------------------------------
A|-----9--7-7-7-8-9--9-------------9--7-7-7-8-9--9------------
E|--7------9---------------7-9--7------9-----------------7-9--
B|---------------------7-9-------------------------7-7-9------



Não adianta relembrar os poréns...2x
G|-----------------------------------------
D|-----------------------------------------
A|--7-7-7---7-7-7—-7~/9-9---9-9-9—-9h11/---
E|-----------------------------------------
B|-----------------------------------------

G|------------------------------------------
D|---------------------------------11-11-11--
A|7-7—7-—7~/9-9-9-11-11-11-13-13-13----------
E|-------------------------------------------
B|-------------------------------------------

G|-----------------------------------------
D|-----------------------------------------
A|--7-7---7-7-7—-7~/9-9---9-9-9—-9h11/-----
E|-----------------------------------------
B|-----------------------------------------

Que nos faz tremer ao nos ver...
G|--------------------------------------
D|------------------------11------------
A|--7-7--7-7-7-7~/9-11-13---------------
E|--------------------------------------
B|--------------------------------------

Refrão

Eu quero outro sim...
G|------------------------------------------------------------
D|------------------------------------------------------------
A|-----9--7-7-7-8-9--9-------------9--7-7-7-8-9--9------------
E|--7------9---------------7-9--7------9-----------------7-9--
B|---------------------7-9-------------------------7-7-9------


Levanta e vem...
G|------------------------------------------------------------
D|------------------------------------------------------------
A|-----6-7-7-7-8-9--9-------------9--7-7-7-8-9--9-------------
E|--------9---------------7-9--7------9-----------------7-9---
B|--9-------------------7-9-------------------------7-7-9-----

Onde estiver...4x
G|------------------------------------------------------------
D|------------------------------------------------------------
A|-----9--7-----------------9--7------------------------------
E|--7----------------7-9--7-----------------------------------
B|----------9-7~---7-9--------------9—7~----------------------


Não adianta relembrar os poréns...3x

G|---9-9-8-8-6-6----------------------------
D|---------------9-9-8-8--------------------
A|-----------------------9-9----------------
E|------------------------------------------
B|------------------------------------------

Que nos faz tremer ao nos ver...
G|--------------------------------------------------
D|--------------------------------------------------
A|-----7-7~-7/9-------------------------------------
E|--------------------------------------------------
B|--------------------------------------------------

Eu quero um novo se...
G|------------------------------------------------------------
D|------------------------------------------------------------
A|-----9--7-7-7-8-9--9-------------9--7-7-7-8-9--9------------
E|--7------9---------------7-9--7------9-----------------7-9--
B|---------------------7-9-------------------------7-7-9------


Levanta e vem...
G|------------------------------------------------------------
D|------------------------------------------------------------
A|-----6-7-7-7-8-9--9-------------9--7-7-7-8-9--9-------------
E|--------9---------------7-9--7------9-----------------7-9---
B|--9-------------------7-9-------------------------7-7-9-----

Onde estiver...4x
G|------------------------------------------------------------
D|------------------------------------------------------------
A|-----9--7-----------------9--7------------------------------
E|--7----------------7-9--7-----------------------------------
B|----------9-7---7-9--------------9--7-----------------------
Página 1 / 1

Letras e título
Acordes e artista

resetar configurações
OK