Cifra Club

Aprenda

I Feel Like Going Home

Muddy Waters

Cifra: Principal (violão e guitarra)
tom: G
(afinação E A E A C# E )

E|-|-10-/12--10-/12-12-12s10------------------------------------------------|
C|-------------------------/12--------------------------------------------|
A|-|-----------------------------\10-----0--/5--/5-/5-/5-/5-/6-/6-/6-/7s5-0-|
E|-|---------------------------------/12~-----------------------------------|
A|-|------------------------------------------------------------------------|
E|-|------------------------------------------------------------------------|

                                                               (*
|------------------------------------------------------0--------3---3------|
|-----------------------------------------------------------0-----------3--|
|-/3--0--0-/5-/5-/5s3-0-/5-/5s3-0-/3--0------------0-----------------------|
|---------------------------------------------0----------------------------|
|---------------------------------------0h3s5------------------------------|
|-----------------------------------------------0--------------------------|
                                                  Well, get in late in the

                                                                  *)
|-----3----3---------3-3---3-3----3---3-------3---2-----2-2----2--3--------|
|---------------3--------3-----3----------3-----------3-----3----------0---|
|--------------------------------------------------------------------------|
|--------------------------------------------------------------------------|
|--------------------------------------------------------------------------|
|--------------------------------------------------------------------------|
 evening I feel like              like goin' a home                you know

|----------3-----3--------------3---3-----------0--0-------12---12------12-|
|---/3---------------------/3---------\1--------0-----/12-----------/12----|
|----------------------------------------/3--0-----------------------------|
|--------------------------------------------------------------------------|
|--------------------------------------------------------------------------|
|--------------------------------------------------------------------------|
 I woke up this morning and all I had             all I had was gone

|-12------------/5~--------------------3-----------------------------------|
|------\1---------------------------------3-\1-----------------------------|
|---------/3--0--------------------------------/3--0-----------------------|
|----------------------------------------------------/5~----/5~----/5--3-0-|
|--------------------------------------------------------------------------|
|--------------------------------------------------------------------------|
 get in             late in the evening                 I feel like

|--------------------------------------------------------------------------|
|--------------------------------------------------------------------------|
|--------------------------0-------------------------0---------------------|
|-----------------------------5-s-3--0-----------------/5-s-3--0--/5-s-3-0-|
|--/5--------/3--0--3-s-5--------------/5-/3--0--0-3-----------------------|
|--------------------------------------------------------------------------|
 goin' a home                                                 well   I

                   (*                                              *)
|-------0-----0----------0-0---0-0---0------3-3-----3--3-----3-------------|
|-------------------1--------1-----1---1--3------3--------3-----1----------|
|------------------------------------------------------------------3--0--0-|
|--------------------------------------------------------------------------|
|--------------------------------------------------------------------------|
|-0------------------------------------------------------------------------|
    woke up this morning                        and a l l I had was gone

|-----0-/5-/5-5-/3--0------------------------------------------------------|
|----------------------3--1------------------------------------------------|
|---------------------------/3--0------------------------------------------|
|----------------------------------/5-/3-0---------------------------------|
|-------------------------------------------3-5-/7-/7-/7----0--------------|
|--------------------------------------------------------/3----------------|
 yeah                                            well        brook's running

 (*                                                             *)
|-----3---3-------3---3-----3---0-2-3-3--3---3---3---3-3-3--3---3-----12-12|
|/3---3---3--/3---3---3-----3-3-0-2-3-3--3---3---3---3-3-3----3---/12-12-12|
|--------------------------------------------------------------------------|
|--------------------------------------------------------------------------|
|--------------------------------------------------------------------------|
|--------------------------------------------------------------------------|
 to the ocean ocean running             into the sea

|---------12----12-----------12----12--------12-12--------3------3--------3|
|--/12----12----12----/12----12----12----/12-12-12--0-/3-----/3----/3-/3---|
|--------------------------------------------------------------------------|
|--------------------------------------------------------------------------|
|--------------------------------------------------------------------------|
|--------------------------------------------------------------------------|
 if I don't find my woman somebody's going              sure bury me

|-----------------5--------------------------------------------------------|
|-/3-\1-------/5---------------------------------/3-/3-s-1-----------------|
|-------/3--0---------------------------------3------------/3--0-----------|
|------------------------------------------------------------------0---/5~-|
|--------------------------------------------------------------------------|
|--------------------------------------------------------------------------|
 aahaahaa        brook's running to the ocean                    an ocean's

|---------------------------------------------------------0-12-s-10--------|
|-------------------------------------------------------------------/12----|
|-----------------------------------0-----------------------------------12~|
|/5--3--0------------------------------5-s-3--0----------------------------|
|-------------/5------/3--0--3-s-5--------------/5-/3--0-------------------|
|--------------------------------------------------------------------------|
      running to the sea

                    (*               *)
|--------------0--0-----0--0-----0-0---0-----------3-------3---3-------3---|
|-----/3-------------1--------1------1---0-1-s-3-------3-----------3-------|
|---------3----------------------------------------------------------------|
|--------------------------------------------------------------------------|
|--------------------------------------------------------------------------|
|------------0-------------------------------------------------------------|
 well, if I    don't find my baby            heehee will make somebody going

|--------------------------------------------------------------------------|
|-3-s-1--------------------------------------------------------------------|
|-------/3--0---0-/5-/5-5s3-0----/5-----5----s----3-----0-----/3-----0-----|
|--------------------------------------------------------------------------|
|--------------------------------------------------------------------------|
|--------------------------------------------------------------------------|
  bury me                      Johnny you know what I mean don't you

|--------------0-0-----15-15-14-14-14-15-15-15-/15-15-15-15-15-15-/15-15-15|
|--------------0-0-/15-----------------------------------------------------|
|--------------------------------------------------------------------------|
|--------------------------------------------------------------------------|
|-/3----0------------------------------------------------------------------|
|--------------------------------------------------------------------------|
          yeah

|-15-15-15\----0----3-3-/3-3-3-/3-3-3-/3-3-0-/5-0-/3-----------------------|
|-----------0----/3----------------------------------\1--------------------|
|-------------------------------------------------------/3--0-------0----0-|
|--------------------------------------------------------------0-/3---/3---|
|--------------------------------------------------------------------------|
|--------------------------------------------------------------------------|

|-----------------------------------------------------------------------0--|
|-------------------------------------------------------\1-----------------|
|---/5~--5s3-0-/3-/3~-------0------0----0----/5s3-0-/3-----/3--0--3-s-5----|
|-0--------------------0-/3---0-/3---/3----0-------------------------------|
|--------------------------------------------------------------------------|
|--------------------------------------------------------------------------|

|-/5-/3--0-----------0-0--12-12s10-----------------------------------------|
|----------\1----------------------/12-------------------------------------|
|-------------/3--0--------------------12~--\10-----\10-----\10-----\10----|
|-----------------------------------------------/12-----/12-----/12-----/12|
|--------------------------------------------------------------------------|
|--------------------------------------------------------------------------|

|------------0-/5-5-5-5-0-/3-----------------------------------------------|
|----------------------------\1--------------------------------------------|
|\10----------------------------/3--0-/5p0-/3--0---------------------------|
|----10-/12~--------------------------------------0-0-/5-/5-/5s3-0-/3------|
|---------------------------------------------------------------------/5-/3|
|--------------------------------------------------------------------------|

               (*                                            *)
|-------------0---0------3-3-3-3-3----3-3-3-3-3----3-3---------------------|
|---------------1---1-/3-3-3-3-3-3-/3-3-3-3-3-3-/3-3-3--3--1---------------|
|------------------------------------------------------------3--0--0------0|
|--------------------------------------------------------------------0-/3--|
|-0------------------------------------------------------------------------|
|---/3--/3--0--------------------------------------------------------------|

  (*                  *)
|----3-3-3-3-3----3-3-3--0-\10------12-12s10------12-12s10------/12-12-12--|
|-/3-3-3-3-3-3-/3-3-3-3--------/12-----------/12-----------/12-------------|
|--------------------------------------------------------------------------|
|--------------------------------------------------------------------------|
|--------------------------------------------------------------------------|
|--------------------------------------------------------------------------|

|-0--/15--/15--3---------------------------------------------------------0-|
|----------------3-\1------------------------------------------------------|
|---------------------/3--0----------------------------------------3-s-5---|
|----------------------------3-/5-/5~--/5-0--------------------------------|
|--------------------------------------------0-/5-/5-/6-/7p0-/3--0---------|
|--------------------------------------------------------------------------|

|-/5-0-/3----------\10-----12-12s10----------------------------------------|
|---------\1-----------/12----------/12------------------------------------|
|------------/3--0----------------------12-12~\----------------------------|
|-----------------------------------------------------0-/7~------0-/7~-----|
|------------------------------------------------0-/3-------0-/3-------0-/3|
|--------------------------------------------------------------------------|

|--------------------------------------------------------------------------|
|--------------------------------------------------------------------------|
|--------------------------------------------------------------------------|
|-0-/5~--5-s-3--0-/3~-------------------------------------------------0----|
|---------------------0-/5p0-/3--0--0-/5-/5-/5-/6-/6-/7p0-/3--0------------|
|----------------------------------------------------------------0-/3----0-|
      (*
|----0---0------3---3---3---3---3--3-3-3-3-3-3--3-3----3----3----3----3----|
|------3---/3---3---3---3---3---3--3-3-3-3-3-3--3-3----3----3----3----3----|
|--------------------------------------------------------------------------|
|--------------------------------------------------------------------------|
|--------------------------------------------------------------------------|
|--------------------------------------------------------------------------|
 well      minutes seem like hours                  and hours seem like days

|-3-3-3-3-3-3----3----3----3----3----3--------5--5--5-------3--3--3--3--3--|
|-3-3-3-3-3-3-/3-3----3----3----3----3----/6--6--6--6--0-2--3--3--3--3--3--|
|--------------------------------------------------------------------------|
|--------------------------------------------------------------------------|
|--------------------------------------------------------------------------|
|--------------------------------------------------------------------------|
                   seem like my woman boy was stayin'     the whole day away

           *)
|--------------------------------------------------------------------------|
|-2--1---------------------------------------------------------------------|
|-------3--0--3-/5---5---s---3---0---/3----0--3-/5--5--s--3--0-/3--------/5|
|-------------3-/5---5---s---3---0---/3----0--3-/5--5--s--3--0-/3--------/5|
|-------------3-/5---5---s---3---0---/3----0--3-/5--5--s--3--0-/3--------/5|
|--------------------------------------------------------------------------|
 aahaahaahaa       minutes seem like hours          an hours      feels like

|-----------------0-/5-p-0-/3------------------------------------0-----0---|
|-----------------------------\1--------0-/12-12~--12\---------------------|
|----/3--0--3-s-5----------------/3--0--0-/12-12~--12\---------------------|
|----/3--0------------------------------0-/12-12~--12\---------------------|
|----/3--0-----------------------------------------------------------------|
|-------------------------------------------------------/3--0--------------|
 days                                              well       seems like my

  (*                                              *)
|-----0-0---0------------------------------------------------/5-/5--0-/3--0|
|--1------1----1-----------------------------------------------------------|
|--------------------------------------------------------------------------|
|--------------------------------------------------------------------------|
|-------------------------3---3---3---3---3---0-------0---0----------------|
|-----------------1--2---------------------------3-------------------------|
 baby                 heehee will make us stopping on our way

                  (*                  *)
|---------------0--2--3---------------3--|
|-3-s-1-----------------------------3----|
|-------/3--0--------------0------0------|
|---------------------------0---0--------|
|----------------------------0-----------|
|-----------------------------0----------|
Composição de Muddy Waters
Colaboração e revisão:
  • Élison Duarte
1.654 exibições
    • ½ Tom
    • A
    • Bb
    • B
    • C
    • Db
    • D
    • Eb
    • E
    • F
    • F#
    • G
    • Ab
  • Adicionar à lista

    0 comentários

    Ver todos os comentários

    Conseguiu tocar?

    0 Tocaram 0 Ainda não

    Grave um vídeo tocando I Feel Like Going Home e nos envie!

    00:00 / 00:00
    outros vídeos desta música
    repetir qualidade Automático
    Outros vídeos desta música
    00:00 / 00:00
    Automático

    Cifra Club Pro

    Aproveite o Cifra Club com benefícios exclusivos e sem anúncios
    Cifra Club Pro
    Aproveite o Cifra Club com benefícios exclusivos e sem anúncios
    OK