Cifra Club

Declaração de Amor

Mulheres Perdidas

Cifra: Principal (violão e guitarra)
tom: C
Intro 2x:  C  Em  F  G

Riff 1

E|-------------------------------3/5---------
B|----------6-5-5h6-8-5h6p5------------------
G|-----5-7------------------7-5--------------
D|---7---------------------------------------
A|-------------------------------------------
E|-------------------------------------------

Riff 2

E|-------------------------------------------
B|-10p8-10p8---------------------------------
G|-----------9----10-10-10p9p7----7---10-10--
D|-----------------------------10------------
A|-------------------------------------------
E|-------------------------------------------

E|-------------------------------------------
B|-------------------10-9--------------------
G|-10p9p7----7--9-10-------------------------
D|--------10---------------------------------
A|-------------------------------------------
E|-------------------------------------------

E|-------------------------------------------
B|-10p8-10p8-------------------------------
G|-----------9----10-10-10p9p7----7---10-10--
D|-----------------------------10------------
A|-------------------------------------------
E|-------------------------------------------

E|-------------------------------------------
B|-------------------10-9--------------------
G|-10p9p7----7--9-10-------------------------
D|--------10---------------------------------
A|-------------------------------------------
E|-------------------------------------------

C                 Em            F
Hoje me deu uma vontade louca alucinada
   G                    C
De me declarar pra você
               Am
Te amar é bom demais
                  Em                F                     G
E só você me faz voar no céu azul, mergulhar no oceano sem medo nenhum
C        Am                  Em
Quero te prometer o que você quiser
           F
Todo o meu amor
                  G                       C Em F G
Estrela guia me carregue para onde for

Dm               Am
Eu sei que um dia a gente pode se perder
   F                        Dm
Mas não vai ser assim se depender de mim
                 G                      Em
Porque eu vou lutar pra nunca acabar
F               Dm
Haja o que houver venha o que vier
             G
Inverno ou verão
              F
Em qualquer estação
    Dm            G
Só vou gritar amor, amor, amor

           C
Menina eu te amo
               Em               F    G
Ta difícil de viver a vida sem você
              C                 Em
Menina eu te quero, vou virar o mundo
                    F    G
Mas amor vou ter você

Solo 2x: C  Em  F  G

Dm                         Am
Eu sei que um dia a gente pode se perder
              F                  Dm
Mas não vai ser assim se depender de mim
              G                 Em
Porque eu vou lutar pra nunca acabar
F                 Dm
Haja o que houver venha o que vier
             G
Inverno ou verão
             F
Em qualquer estação
    Dm            G          G#
Só vou gritar amor, amor, amor

           C#
Menina eu te amo
                 Fm                 F#    G#
Ta difícil de viver a vida sem você
              C#                 Fm
Menino eu te quero, vou virar o mundo
                     F#    G#
Mas amor vou ter você
00:00 / 00:00
Outros vídeos desta música
Repetir
Outros vídeos desta música
Composição de Chrystian Lima / Edu Lupa
Colaboração e revisão:
  • Francisco Diá
1.023 exibições
    • ½ Tom
    • A
    • Bb
    • B
    • C
    • Db
    • D
    • Eb
    • E
    • F
    • F#
    • G
    • Ab
  • Adicionar à lista

    0 comentários

    Ver todos os comentários

    Entre para oCifra Club PRO

    Tenha acesso a benefícios exclusivos no App e no Site

    • Chega de anúncios

    • Prioridade de compra em lançamentos

    • Mais recursos no app do Afinador

    • Atendimento Prioritário

    • Descontos nos produtos Cifra Club

    • Ajude a produzir mais conteúdo

    00:00 / 00:00

    Cifra Club Pro

    Aproveite o Cifra Club com benefícios exclusivos e sem anúncios
    Cifra Club Pro
    Aproveite o Cifra Club com benefícios exclusivos e sem anúncios
    OK