Cifra Club

Meu Esquema

Mundo Livre S/A

Cifra: Principal (violão e guitarra)
tom: D
[Intro] Em7(9)  D7M    B7

E|--------------------------------------------------------------------|
B|--7--------------0-----------------7------------7--------------0----|
G|-------7-----------------7--------------7------------7--------------|
D|------------5-----------------5---------------------------7---------|
A|--7--------------7-----------------7--------------------------------|
E|------------------------------------------------7--------------7----|

E|--------------------------------------------------------------------|
B|------------7------------8--------------0-----------------8---------|
G|--7--------------7------------7-----------------7--------------7----|(2x)
D|-------7---------------------------5-----------------5--------------|
A|-------------------------7--------------7-----------------7---------|
E|------------7-------------------------------------------------------|
                  
E|--------------------------------------------------------------------|
B|--7--------------5-----------------7---------------------------8----|
G|-------6-----------------6--------------6-----------------6---------|
D|------------7-----------------7----------------------8--------------|
A|--5--------------5-----------------5------------7-------------------|
E|--------------------------------------------------------------------|

E|------------------------------|
B|-----------------7-------7----|
G|--6--------------8-------8----|
D|-------8---------7-------7----|
A|------------7-----------------|
E|-----------------7-------7----|

           Em7(9)        Bm7
Ela é meu treino de futebol
              Em7(9)      Bm7
 Ela é o meu domingão de sol
              Em7(9)  D7M     B7
Ela é meu esquema
              Em7(9)          Bm7
Ela é meu concerto de rock’n roll, nação!
       Em7(9)           Bm7
Minha torcida gritando gol
           Em7(9)  D7M     B7
Minha Ipanema

           Em7(9)        Bm7
Ela é meu curso de anatomia
             Em7(9)      Bm7
Ela é meu retiro espiritual
                Em7(9)  D7M     B7
Ela é minha história
              Em7(9)         Bm7
Ela é meu desfile internacional
            Em7(9)       Bm7
Ela é meu bloco de carnaval
            B7
Minha evolução

     G7M  A7/F#         F#m7 B7       G7M      A7     D7
  Galega        tento des-cre-ver o que é estar com você
     G7M  A7/F#       Em7(9) B7    G7M         A7     
Princesa       to-dos vão saber que eu estou muito bem com você

( Em7(9)  Bm9  Em7(9)  Bm9 )
( Em7(9)  D7M    B7 )
( Em7(9)  D7M    B7 )

             Em7(9)        Bm7
Ela é minha “Ilha da Fantasia"
            Em7(9)       Bm7
A mais avançada das terapias
          Em7(9)  D7M     B7
Meu playcenter
             Em7(9)      Bm7
Ela é minha pista alucinada
              Em7(9)      Bm7
A mais concorridas das baladas
           Em7(9)  D7M     B7
Meu inferninho
             Em7(9)    Bm7
Ela é meu esporte radical
           Em7(9)            Bm7
Poderosa, viciante, mas não faz mal
        Em7(9)  D7M     B7
Meu docinho
                 Em7(9)       Bm7
Ela é o que meu médico receitou
             Em7(9)            Bm7
Rivaldo maravilha mandando um gol

            B7
Minha chapação

   G7M  A7/F#       Em7(9) B7      G7M      A7    D7M   D7
Galega      nem dá pra dizer o que é estar com você
     G7M  A7/F#     Em7(9) B7  G7M         A7   Em7(9) D7M  B7 
Princesa      to-do mun-do vê que eu sou mais
00:00 / 00:00
Outros vídeos desta música
Repetir
Outros vídeos desta música
Composição de Fred Zero Quatro
Colaboração e revisão:
59.866 exibições
    • ½ Tom
    • A
    • Bb
    • B
    • C
    • Db
    • D
    • Eb
    • E
    • F
    • F#
    • G
    • Ab
  • Adicionar à lista

    0 comentários

    Ver todos os comentários

    Conseguiu tocar?

    17 Tocaram 0 Ainda não

    Grave um vídeo tocando Meu Esquema e nos envie!

    00:00 / 00:00

    Cifra Club Pro

    Aproveite o Cifra Club com benefícios exclusivos e sem anúncios
    Cifra Club Pro
    Aproveite o Cifra Club com benefícios exclusivos e sem anúncios
    OK