Cifra Club

Aprenda

Seu Suor É o Melhor de Você

Mundo Livre S/A

Cifra: Principal (violão e guitarra)
Tom: G
Intro:
                    (3x)
E|----------------------||-------------------------------|
B|----------------------||-------------------------------|
G|----------------------||-------------------------------|
D|--7/9-7/9-7/9-4-4--4--||--7/9-7/9-7/9-4-4--4--5--7--4--|
A|--5/7-5/7-5/7-2-2--2--||--5/7-5/7-5/7-2-2--2--3--5--2--|
E|----------------------||-------------------------------|

Em
Se você tem muito tempo
                     C  D
Não perde por esperar
           B9         Em B9 Em B9
Guarde um pouco para mim
Em
Se tem pouco não gaste nada
                   C    D
Não vá desperdiçar
        B9        Em B9 Em B9
Guarde tudo para mim
Em
Guarde para mim, pra mim,

guarde para mim, pra mim
      C             D                Em B9 Em B9
Guarde, tudo, tudo, guarde tudo pra mim

Solo:
                                               (2x)
E|-------------------------------------------------|-5-7-5-7-5-7-5-7-5-7-5-7-5-7-5-7-5-7-5-7-5-7-7/10-|
B|-------------------------------------------------|--------------------------------------------------|
G|-2-4-2-4-2-4-2-4-2-4-2-4-2-4-2-4-2-4-2-4-2-4-4/7-|--------------------------------------------------|
D|-------------------------------------------------|--------------------------------------------------|
A|-------------------------------------------------|--------------------------------------------------|
E|-------------------------------------------------|--------------------------------------------------|

Em
Você tá cheia da vida
                        C  D
Logo, logo vai menstruar
           B9        Em  B9 Em B9
Guarde um pouco pra mim
E
Você quer fuder com o mundo
                     C  D
Basta abrir as pernas
         B9        Em B9 Em B9
Deixe o resto pra mim

Em
Guarde para mim, pra mim, guarde para mim, pra mim
      C             D       B9        Em B9 Em B9
Guarde, tudo, tudo, guarde tudo pra mim
Em
Eu sou o seu demônio

Eu estou vivo em você

Eu quero lhe soltar mas não consigo
            C
Eu sou seu salvador
       D         B9      E  B9 Em B9
O melhor de você está comigo
Em
Eu estou em sua pulseira

Em seu relógio

Você é minha glória

Eu sou o seu prazer
             C       D
Eu estou no seu suor
      B9       Em B9
O melhor de você!
      C        D          Em B9
O melhor de você está em mim
            C       D
Eu vivo em seu suor
                Em B9
(o melhor de você )

       C       D          Em  B9
O melhor de você vive comigo...
           C      D              Em  B9
Estou no seu suor o melhor de você
      C        D          Em  B9
O melhor de você está em mim...
Composição de Tony Regalia
Colaboração e revisão:
  • Magnum Costa
4.132 exibições
    • ½ Tom
    • A
    • Bb
    • B
    • C
    • Db
    • D
    • Eb
    • E
    • F
    • F#
    • G
    • Ab
  • Adicionar à lista

    0 comentários

    Mostrar mais comentários

    Conseguiu tocar?

    1 Tocaram 1 Ainda não

    Grave um vídeo tocando Seu Suor É o Melhor de Você e mande pra gente!

    00:00 / 00:00
    outros vídeos desta música
    repetir qualidade Automático
    Outros vídeos desta música
    00:00 / 00:00
    Automático

    Cifra Club Pro

    Aproveite o Cifra Club com benefícios exclusivos e sem anúncios
    7 dias grátis
    Cifra Club Pro
    Aproveite o Cifra Club com benefícios exclusivos e sem anúncios
    7 dias grátis
    OK