Cifra Club

Bote Quente

Munhoz & Mariano

Cifra: Principal (violão e guitarra)
Tom: C
[solo inicial]

     Am    F     E  Am        F     E     Am
E|-----------------------------12----------|
B|----12-12p13-12--------12-13----12-13----| [3x]
G|-14-------------14--14----------------14-|

[riff 1]    ou  [riff 1]

G|-10-9---|    D|-3-2---|
D|------7-| ou A|-----0-|

[riff 2]            ou   [riff 2]

G|-9-8-9-10-9---|   ou D|-2-1-2-3-2---|
D|------------7-|      A|-----------0-|

[riff 3]                                   

E|----------12-10----------------|
B|-10-12-13-------13-12-10-10-10-|

              ou

E|----------12-------------------|
B|----12-13-------13-12----------|
G|-14----------15-------14-14-14-|

[riff 4]

G|-9~--10-9-10-9-10-9-10-9-]


                  (riff 1)
Am                F  E  Am
Não fique olhando muito não
                (riff 1)     (riff 2)
Am              F  E Am
Que você cai em tentação
                       (riff 2)
Am                         F E
E eu não te perdoo não
                             (riff 2)
Am                               F E
Se vai parar no meu colchão


                  (riff 1)
Am                F  E  Am
E a minha flauta vai tocar
             (riff 1)      (riff 2)
Am           F  E  Am
E a serpente despertar
                       (riff 2)
Am                         F E
Não vá ficar medo não
                       (riff 2)
Am                         F E
Relaxa e sente a sensação

[pré-refrão]

F         Dm          Am       G (riff 3)
O deserto vai ficar pequeno
                         (riff           4)
F           Dm           E  F E F E F E F E
Quando você sentir meu venenÔ o Ô o Ô o Ô o

[refrão]

Am           F
Ó cuidado com a serpente
C             G
Porque aqui é bote quente
Am          F                      [2x]
A pegada é diferente
C             G
Elas querem é bote quente


[solo final]

E|----------12----------12---------------------------|
B|----12-13-------12-13-----------12-15--15-13-12----|
G|-14----------14-----------12-14-----------------14-|

[repete riff 2] [2x]

[repete tudo]

[repete solo final]

[repete riff 2] [2x]

[repete solo inicial]
exibições 3.375
Acordes para:
    Colaboração e revisão:
    • Dionys Martins

    0 comentários

    mostrar mais comentários

    Conseguiu tocar?

    2 tocaram 0 ainda não

    Grave um vídeo tocando Bote Quente e mande pra gente!

    00:00 / 00:00
    outros vídeos desta música
    repetir qualidade Automático
    Outros vídeos desta música
    00:00 / 00:00
    Automático
    OK