Notificações Amigos pendentes

      Munhoz & Mariano

      Eu Adoro Amar Você

      14.063 exibições
      Tom: G
      
      Intro: G  D  Em  C
      E|--------------------------8-7----7h8-----------7-8-7h8-5-----|
      B|------8-10-8-7-7h8-------8----10--------7-8-10-----------7---|
      G|--6/7----------------6/7--------------9----------------------|
      D|-------------------------------------------------------------|
      A|-------------------------------------------------------------|
      E|-------------------------------------------------------------|
      
      
      Refrão:
       G
      Explodiu, Balançou
       D
      Não deu pra segurar
       Em                        C
      Coração disparou foi só ti ver chegar
       G
      Explodiu, Balançou
       D
      Fez meu corpo tremer
       C       Am    G
      Eu adoro amar você
      
      E|--9h10--10--|
      B|------------|
      G|--10h11-11--|
      D|------------|
      A|------------|
      E|------------|
      
      
       G
      Será que você ta se apaixonando
      
      Ou será que ta me enganando
       Am       C
      Não sei, não sei
       G
      Mais o jeito que você me olha
      
      Ta na cara que ta dando bola
       Am       C
      Pra mim, ta sim
      
      E|-7h8-7-5-7-9h10--|
      B|-----------------|
      G|-----------------|
      D|-----------------|
      A|-----------------|
      E|-----------------|
      
      
       C                               Am
      Não adianta mais você tentar se esconder
              D          G
      Da pra ver no seu olhar
       C                       Am
      Sei que você ta querendo e eu também
                            D      G
      E eu também to louco pra ti amar
      
      Refrão:
       G
      Explodiu, Balançou
       D
      Não deu pra segurar
       Em                        C
      Coração disparou foi só ti ver chegar
       G
      Explodiu, Balançou
       D
      Fez meu corpo tremer
       C       Am    G
      Eu adoro amar você
      
      E|---------------------------8-7----7h8--------------------------------------|
      B|------8-10-8-7-7h8-------8-----10-----7/8-8-8-10-12-10-8--8-8-8-8-7-8-10---|
      G|--6/7----------------6/7---------------------------------------------------|
      D|--------------------------------------8/9-9-9-10-12-10-9--9-9-9-9-8-9-10---|
      A|---------------------------------------------------------------------------|
      E|---------------------------------------------------------------------------|
      
      
      E|--------------------------8-7----7h8-----------7-8-7h8-5-----|
      B|------8-10-8-7-7h8-------8----10--------7-8-10-----------7---|
      G|--6/7----------------6/7--------------9----------------------|
      D|-------------------------------------------------------------|
      A|-------------------------------------------------------------|
      E|-------------------------------------------------------------|
      
      
       G
      Será que você ta se apaixonando
      
      Ou será que ta me enganando
       Am       C
      Não sei, não sei
       G
      Mais o jeito que você me olha
      
      Ta na cara que ta dando bola
       Am       C
      Pra mim, ta sim
      
      E|-7h8-7-5-7-9h10--|
      B|-----------------|
      G|-----------------|
      D|-----------------|
      A|-----------------|
      E|-----------------|
      
      
      C                               Am
      Não adianta mais você tentar se esconder
              D          G
      Da pra ver no seu olhar
       C                       Am
      Sei que você ta querendo e eu também
                            D      G
      E eu também to louco pra ti amar
      
      Refrão 2x:
       G
      Explodiu, Balançou
       D
      Não deu pra segurar
       Em                        C
      Coração disparou foi só ti ver chegar
       G
      Explodiu, Balançou
       D
      Fez meu corpo tremer
       C       Am    G
      Eu adoro amar você
      
       C       Am    G
      Eu adoro amar você
      
      E|---------------------------8-7----7h8--------------------------------------|
      B|------8-10-8-7-7h8-------8-----10-----7/8-8-8-10-12-10-8--8-8-8-8-7-8-10---|
      G|--6/7----------------6/7---------------------------------------------------|
      D|--------------------------------------8/9-9-9-10-12-10-9--9-9-9-9-8-9-10---|
      A|---------------------------------------------------------------------------|
      E|---------------------------------------------------------------------------|
      
      
      E|--------------------------8-7----7h8-----------7-8-7h8-5-----|
      B|------8-10-8-7-7h8-------8----10--------7-8-10-----------7---|
      G|--6/7----------------6/7--------------9----------------------|
      D|-------------------------------------------------------------|
      A|-------------------------------------------------------------|
      E|-------------------------------------------------------------|
      
      
      C         Am   G
      Eu adoro amar você
        Composição: Munhoz / MarianoColaboração e revisão:
        • mayconzanatta

        Comentários 0

        140 .
        140 cancelar

        conseguiu tocar?

        covers

        Grave um vídeo tocando Eu Adoro Amar Você e mande pra gente!

        Ex.: http://www.youtube.com/watch?v=0IvSvIwGdwk
        ver covers de outras músicas »
        0:00 / 0:00

        Capítulos

          1 versão de violão dificuldade exibições contribuição e correção
          1 versão de guitarra dificuldade exibições contribuição e correção
          1 versão de cavaco dificuldade exibições contribuição e correção
          1 versão de teclado dificuldade exibições contribuição e correção
          play/pausefechar subir/descer velocidade
          6ª corda E5ª corda A4ª corda D3ª corda G2ª corda B1ª corda E
            acordes
            publicidade
            fechar
            ok