Cifra Club

Sexto Sentido

Munhoz & Mariano

Cifra: Principal
exibições 68.911
Tom: D# (com acordes na forma de D) Capotraste na 1ª casa
Intro:

       Bm                    G                    D                    A       Bm       G       A
E|------------------------------------------------------------------------------------------|
B|-------------4-4------------------4-4-----------------------------------------------------|
G|-3h5-5-5--5------5-3--3h5-5-5--5------5-3--3h5-5-5-5--5/8-8-3-3--5/8-8-5-5---5/8--8/10-10-|
D|------------------------------------------------------------------------------------------|
A|------------------------------------------------------------------------------------------|
E|------------------------------------------------------------------------------------------|


Bm                             D
A lua é a testemunha de que toda noite eu penso em você
Bm                                       D
O mundo gira ao contrário estou preso num passado que me leva a crer
    G
Que você é meu desturbio, minha obsessão   G|-3-3h5-5/8-5-3h5-|
    Bm
Meu subconciente, alucinação   G|-12-10/8-5-|
    D                            A                 G
Os meus cinco sentidos estão presos em suas mãos  G|-8p7/5/8-|
Em                 D
De tanto te amar, enfrento o infinito
G                  A
Desperto até o meu Sexto Sentido

Refrão 2x:
                     Bm
E toda noite eu vejo você em minha frente
D                        A
Eu sei que é alucinação, coisa da minha mente
Bm                  G
De tanto te querer, de tanto te amar
D                  A
Até o meu sexto sentido eu posso despertar

       Bm                    G                    D                    A       Bm       G       A
E|------------------------------------------------------------------------------------------|
B|-------------4-4------------------4-4-----------------------------------------------------|
G|-3h5-5-5--5------5-3--3h5-5-5--5------5-3--3h5-5-5-5--5/8-8-3-3--5/8-8-5-5---5/8--8/10-10-|
D|------------------------------------------------------------------------------------------|
A|------------------------------------------------------------------------------------------|
E|------------------------------------------------------------------------------------------|


Bm                             D
A lua é a testemunha de que toda noite eu penso em você
Bm                                       D
O mundo gira ao contrário estou preso num passado que me leva a crer
    G
Que você é meu desturbio, minha obsessão   G|-3-3h5-5/8-5-3h5-|
    Bm
Meu subconciente, alucinação   G|-12-10/8-5-|
    D                            A                 G
Os meus cinco sentidos estão presos em suas mãos  G|-8p7/5/8-|
Em                 D
De tanto te amar, enfrento o infinito
G                  A
Desperto até o meu Sexto Sentido

Refrão 2x:
                     Bm
E toda noite eu vejo você em minha frente
D                        A
Eu sei que é alucinação, coisa da minha mente
Bm                  G
De tanto te querer, de tanto te amar
D                  A
Até o meu sexto sentido eu posso despertar


( D  G  D )

                     Bm
E toda noite eu vejo você em minha frente
D                        A
Eu sei que é alucinação, coisa da minha mente
Bm                  G
De tanto te querer, de tanto te amar
D                  A
Até o meu sexto sentido eu posso despertar

       Bm                   G                        D
E|-------------------------------------------------|
B|-------------4-4------------------4-4------------|
G|-3h5-5-5--5------5-3--3h5-5-5--5------5-3--3h5-5-|
D|-------------------------------------------------|
A|-------------------------------------------------|
E|-------------------------------------------------|
Acordes para:
    Colaboração e revisão:

    0 comentários

      mostrar mais comentários

      Conseguiu tocar?

      11tocaram1ainda não

      Grave um vídeo tocando Sexto Sentido e mande pra gente!

      00:00 / 00:00
      outros vídeos desta música
      repetirqualidadeautomática
      Outro vídeos desta música
        00:00 / 00:00
        automática
        OK