Cifra Club

Toma Conta

Munhoz & Mariano

Cifra: Principal (violão e guitarra)
Tom: E
E             B7
Toma conta e cuida do meu coração
C#m              A9
Eu tenho medo de arriscar outra paixão
F#m
Você provoca e sabe que eu to afim
A9                                          E
Mas você tem que prometer que vai cuidar de mim

      E          B7
E|---------------------------------------|
B|--7-7h9-7-----7-7-7---7---7h9----------|
G|----------9-6-------9---9--------------|
D|---------------------------------------|
A|---------------------------------------|
E|---------------------------------------|

     C#m         A
E|---------------------------------------|
B|--7-7h9-7-----7-7-7---9--7-------------|
G|----------9-6---------------9-9--------|
D|---------------------------------------|
A|---------------------------------------|
E|---------------------------------------|

     E           B7
E|---------------------------------------|
B|--7-7h9-7-----7-7-7---7---7h9----------|
G|----------9-6-------9---9--------------|
D|---------------------------------------|
A|---------------------------------------|
E|---------------------------------------|

     C#m              A
E|---------------------------------------|
B|--7-7h9-7--------------------7-7-7p9-5-|
G|----------9-8-6---------6-8------------|
D|-----------------9-7-9-----------------|
A|---------------------------------------|
E|---------------------------------------|

E                               B7
Eu sei que não se pode fugir do amor
C#m                               A9
Mas quero prevenir meu coração de outra dor
E                                   B7
Você tem que saber que pra poder me amar
C#m                               A9
Tem que me dar muito carinho e me fazer sonhar
F#m              A9
Já me ferrei uma vez quando me entreguei
E                  B7
Por isso o medo de amar como eu amei
C#m                 A9
Mas quer saber por você posso tentar
E                    B7
Te dar meu coração se você me cuidar

E                      B7
Toma conta e cuida do meu coração
C#m                        A9
Eu tenho medo de arriscar outra paixão
F#m
Você provoca e sabe que eu to afim
A9                                         E
Mas você tem que prometer que vai cuidar de mim
exibições 39.161
Acordes para:
    Colaboração e revisão:

    0 comentários

    mostrar mais comentários

    Conseguiu tocar?

    3 tocaram 0 ainda não

    Grave um vídeo tocando Toma Conta e mande pra gente!

    00:00 / 00:00
    outros vídeos desta música
    repetir qualidade Automático
    Outros vídeos desta música
    00:00 / 00:00
    Automático
    OK