Cifra Club

Aprenda

City Of Delusion Intro

Muse

Cifra: Principal (violão e guitarra)
Já pensou em usar uma coleção de roupas do Cifra Club? Responda as perguntas abaixo e nos ajude nessa missão! →
tom: C
Intro:

--1-1-1--0-0--0-0---------------------------------------|
--2-2-2--2-2--2-2---------------------------------------|
--2-2-2--2-2--2-2---------------------------------------|
--2-2-2--2-2--2-2---------------------------------------|
--0-0-0--0-0--0-0---------------------------------------|
--------------------------------------------------------|

--1-1-1--3-3--------------------------------------------|
--2-2-2--2-2--------------------------------------------|
--2-2-2--2-2--------------------------------------------|
--2-2-2--2-2--------------------------------------------|
--0-0-0--0-0--------------------------------------------|
--------------------------------------------------------|
Composição de Matthew Bellamy
2.023 exibições
    • ½ Tom
    • A
    • Bb
    • B
    • C
    • Db
    • D
    • Eb
    • E
    • F
    • F#
    • G
    • Ab
  • Adicionar à lista

    0 comentários

    Ver todos os comentários

    Conseguiu tocar?

    0 Tocaram 0 Ainda não

    Grave um vídeo tocando City Of Delusion Intro e nos envie!

    00:00 / 00:00
    Outros vídeos desta música
    Repetir Qualidade Automático
    Outros vídeos desta música
    00:00 / 00:00
    Automático

    Cifra Club Pro

    Aproveite o Cifra Club com benefícios exclusivos e sem anúncios
    Cifra Club Pro
    Aproveite o Cifra Club com benefícios exclusivos e sem anúncios
    OK