Cifra Club

Aprenda

City Of Delusion

Muse

Tab de baixo: Versão 2
Já pensou em usar uma coleção de roupas do Cifra Club? Responda as perguntas abaixo e nos ajude nessa missão! →
Tabbed by Zoë Williams (ZamWesell87)

Acoustic Intro until 0:41ish

Verse: (work out timing by listening :P)

G-----------0----|----------0-----|-----------0----|----------0-----|
D----3---2----2--|---3---2----2---|----3---2----2--|---3---2----2---|
A--5---4---------|-5---4----------|--5---4---------|-5---4----------|
E----------------|----------------|----------------|----------------|

G----------0-3-0-|----2-0-3-5-3---|-----2----0-3-0-|-----------0----|
D-----3--2-------|--3-------------|--3----2--------|----3----2---2--|
A--5-------------|----------------|----------------|--5---4---------|
E----------------|----------------|----------------|----------------|

G----------------|----------------|----------------|-----------------|
D----------------|----------------|----------------|-----------------|
A----7----8-10-8-|---7----8--10-8-|---7----7-8-7---|---0-------------|
E-5----6---------|-5---6----------|-5---3----------|-1---0--3--5--3--| 
Composição de Matthew Bellamy
76 exibições

0 comentários

Ver todos os comentários

Conseguiu tocar?

0 Tocaram 0 Ainda não

Grave um vídeo tocando City Of Delusion e nos envie!

00:00 / 00:00
Outros vídeos desta música
Repetir Qualidade Automático
Outros vídeos desta música
00:00 / 00:00
Automático

Cifra Club Pro

Aproveite o Cifra Club com benefícios exclusivos e sem anúncios
Cifra Club Pro
Aproveite o Cifra Club com benefícios exclusivos e sem anúncios
OK