Cifra Club

Feeling Good

Muse

Tab de baixo: Principal
[Introdução] voz e teclado

Birds flying high you know how I feel...

Parte 1 de 1
G|----------------------------------------------|
D|----------------------------------------------|
A|-10--10-8--8-6--6-5--8----8-------------------|
E|-----------------------10---------------------|


[Primeira parte]

Fish in the sea you know how I feel...

Parte 1 de 2 (2x)
G|----------------------------------------------|
D|----------------------------------------------|
A|-10--10-8--8-6--6-5--8----8-------------------|
E|-----------------------10---------------------|

Parte 2 de 2
G|----------------------------------------------|
D|----------------------------------------------|
A|-10--10-8--8-7--7-6--6-5--5-3--3-1--1-0-------|
E|----------------------------------------------|

G|----------------------------------------------|
D|----------------------------------------------|
A|-0-3-3-3-3--3-4-5-----------------------------|
E|-------------------3--------------------------|


[Segunda parte] ( Walking bass )

Dragonflies all out in the sun...

Parte 1 de 2
G|----------------------------------------------|
D|----------------------------------------------|
A|-10--10-8--8-6--6-5--9-12---------------------|
E|----------------------------------------------|

Parte 2 de 2
G|----------------------------------------------|
D|------------------------7-8--8----------------|
A|-10--10-8--8-6--6-5--9---------10--10-6-------|
E|----------------------------------------------|

G|----------------------------------------------|
D|----------8--8-----8\-------------------------|
A|-6-------------10------5-6--6-5---------------|
E|---8--8---------------------------------------|


[Terceira parte]

Stars when you shine you know how I feel...

Parte 1 de 2 (3x)
G|----------------------------------------------|
D|----------------------------------------------|
A|-10--10-8--8-6--6-5--8----8-------------------|
E|-----------------------10---------------------|

Parte 2 de 2
G|----------------------------------------------|
D|----------------------------------------------|
A|-10--10-8--8-7--7-6--6-5--5-3--3-1--1-0-------|
E|----------------------------------------------|

G|----------------------------------------------|
D|-------------7--7-----------------------------|
A|-0-3--3-2-1-------10-9-8--7-6-----------------|
E|----------------------------------------------|

G|----------------------------------------------|
D|----------------------------------------------|
A|-5-5-5--5-5-5--5-5-5--5-5-5--5-5-5--5-5-5--5\-|
E|----------------------------------------------|


[Quarta parte - Final]

Parte 1 de 2 (2x) 
G|----------------------------------------------|
D|-5--5-3--3-1--1-0--3-0-3----------------------|
A|----------------------------------------------|
E|----------------------------------------------|

Parte 2 de 2
G|----------------------------------------------|
D|-5--5-3--3-2--2-1--1-0--0---------------------|
A|--------------------------3--3-1--1-0---------|
E|----------------------------------------------|

G|----------------------------------------------|
D|----------------------------------------------|
A|-0-3-3-3-3--3-4-5-----------------------------|
E|-------------------3--------------------------|
00:00 / 00:00
Outros vídeos desta música
Repetir
Outros vídeos desta música
Composição de Anthony Newley / Leslie Bricusse
Colaboração e revisão:
  • Reginaldo Costa
16.398 exibições

0 comentários

Ver todos os comentários

Entre para oCifra Club PRO

Tenha acesso a benefícios exclusivos no App e no Site

  • Chega de anúncios

  • Prioridade de compra em lançamentos

  • Mais recursos no app do Afinador

  • Atendimento Prioritário

  • Descontos nos produtos Cifra Club

  • Ajude a produzir mais conteúdo

00:00 / 00:00
Capítulos
  • Tocando a música
  • Apresentação / Equipamentos
  • Configuração do pedal
  • Dicas Introdução - Segunda Parte
  • TAB - Introdução
  • TAB - Primeira Parte - Parte 1 de 2
  • TAB - Primeira Parte - Parte 2 de 2
  • TAB - Segunda Parte - Parte 1 de 2
  • TAB - Segunda Parte - Parte 2 de 2
  • Dicas Terceira Parte
  • TAB - Terceira Parte - Parte 1 de 2
  • TAB - Terceira Parte - Parte 2 de 2
  • TAB - Quarta Parte - Parte 1 de 2
  • Quarta Parte - Parte 2 de 2
  • Encerramento

Cifra Club Pro

Aproveite o Cifra Club com benefícios exclusivos e sem anúncios
Cifra Club Pro
Aproveite o Cifra Club com benefícios exclusivos e sem anúncios
OK