Supermassive Black Hole

Muse

Composição de: Matthew Bellamy
tom: D
Intro:
E|----------------------   
B|----------------------    
G|----------------------  (3x)
D|------5-------5-------    
A|----------------------    
E|-0~-0--0--0-0--0------  

E|----------------------------------
B|----------------------------------
G|----------------------------------
D|------5-------5--7b-5h7h5/2-------
A|----------------------------------
E|-0~-0--0--0-0--0------------------

Verso:
E|------------------------------------------------------------------
B|------------------------------------------------------------------
G|------------------------------------------------------------------
D|----5---------------5---------------5---------------5-------------
A|------------------------------------------------------------------
E|0-0---0-0-3-3-3-0-0---0-0-5-5-3-0-0---0-0-3-3-3-0-0---0-0-5-5-7---

E|------------------------------------------------------------------
B|------------------------------------------------------------------
G|------------------------------------------------------------------
D|----5---------------5---------------5---------------5-7b-5h7h2----
A|------------------------------------------------------------------
E|0-0---0-0-3-3-3-0-0---0-0-5-5-3-0-0---0-0-3-3-3-0-0--0------------

Refrão:
E|--------------------------------------------------------------
B|--------------------------------------------------------------
G|--------------------------------------------------------------
D|----7-----7-7-6-----5-----7-7-8-----9---9-8-7-5---------------
A|x-x-x-x-x-x-x-x-x-x-x-x-x-x-x-x-x-x-x-x-x-x-x-x-x-x-x-x-x-x---
E|5-5-5-5-5-5-5-4-3-3-3-3-3-5-5-6-7-7-7-7-7-6-5-3-0-0-0-2-2-3~~~
Página 1 / 1

Letras e título
Acordes e artista

resetar configurações
OK