Cifra Club

Your Soul Is Mine

Mushroomhead

Cifra: Principal (violão e guitarra)
tom: Am (forma dos acordes no tom de Ebm) Afinação: Eb Ab Db Gb Bb Eb Capotraste na 7ª casa
Eb|--------|------|------|------|---------|--------|-----------|------------||
Bb|o-------|------|------|------|---------|--------|-----------|-----------o||
Gb|--------|------|------|------|---------|--------|-----------|------------||
Db|--------|------|------|------|---------|--------|-----------|------------||
Ab|--2-----|------|-3----|------|-2-------|--------|-3---------|------------||
Eb|o-2-----|------|-3----|------|-2-------|--------|-3---------|-----------o||
Bb|--0-----|------|-1----|------|-0-------|--------|-1---------|------------||

Refrão 1:
Eb|------------------------|-----------------------|-----------------------|
Bb|o-----------------------|-----------------------|-----------------------|
Gb|------------------------|-----------------------|-----------------------|
Db|------------------------|-----------------------|-----------------------|
Ab|--9----(9)\-----9-10-10-|-9----(9)\-----9-10-12-|-10--9-9\------9-10-10-|
Eb|o-7----(7)\-----7--8--8-|-7----(7)\-----7--8-10-|--8--7-7\------7--8--8-|
Bb|------------------------|-----------------------|-----------------------|
PM__________________________________________________________________
Eb|---------------------------------|---------------------------------|
Bb|---------------------------------|---------------------------------|
Gb|---------------------------------|---------------------------------|
Db|---------------------------------|---------------------------------|
Ab|---------------------------------|---------------------------------|
Eb|---------------------------------|---------------------------------|
Bb|-6-6-6-6-6-6-6-6-6-6-6-6-6-6-6-6-|-6-6-6-6-6-6-6-6-6-6-6-6-6-6-6-6-|
__________________
Eb|------------------||--------------------|---------|--------|-------------||
Bb|-----------------o||--------------------|---------|--------|-------------||
Gb|------------------||--------------------|---------|--------|-------------||
Db|------------------||--------------------|---------|--------|-------------||
Ab|------------------||-9----(9)\----------|---------|--------|-------------||
Eb|-----------------o||-7----(7)\----------|---------|--------|-------------||
Bb|-6-6-6-6-6-6-6-6--||--------------------|---------|--------|-------0/----||

(Verso 2)

(Refrão 2) 

Solo:
Eb|------------------|------------------------------------------------|
Bb|o-----------------|------------------------------------------------|
Gb|------------------|------------------------------------------------|
Db|------------------|------------------------------------------------|
Ab|------------------|------------------------------------------------|
Eb|o/7~~~\--7-8-10-8-|-7-5-7h8-10/12-12/14--(14)----14h15p14h15p14p12-|
Bb|------------------|------------------------------------------------|

Eb|-------------------------------------------------|
Bb|-------------------------------------------------|
Gb|-------------------------------------------------|
Db|-------------------------------------------------|
Ab|-------------------------------------------------|
Eb|-14--(14)\-----8h10--7------(7)\-----------------|
Bb|-------------------------------------------------|
 
Eb|-6h7p6h7-----------------------------------------------------------------|
Bb|---------8-7h8p7h8-------7h8p7------------------------------------------o|
Gb|-------------------9p8h9-------9p8-8h9p8h9-------------------------------|
Db|-------------------------------------------10-9h10p9---------9h10p9------|
Ab|-----------------------------------------------------10p9h10--------10p9-|
Eb|------------------------------------------------------------------------o|
Bb|-------------------------------------------------------------------------|

Verso 3:
Eb|----------|----|--------|--------|---------|--------|--------|--------|
Bb|o---------|----|--------|--------|---------|--------|--------|-------o|
Gb|----------|----|--------|--------|---------|--------|--------|--------|
Db|----------|----|--------|--------|---------|--------|--------|--------|
Ab|--2-------|----|-3------|--------|-2-------|--------|-3------|--------|
Eb|o-2(/7~~)-|----|-3------|--------|-2-------|--------|-3------|-------o|
Bb|--0-------|----|-1------|--------|-0-------|--------|-1------|--------|

(Refrão 3)

(Outro / Solo 2)

Eb|--------------|-----------|-----------|-------|--------|-------|x3----|
Bb|o-------------|-----------|-----------|------o|--------|o-----o|------|
Gb|------------Solo----------|-----------|-------|--------|-------|------|
Db|-------------3x-----------|-----------|-------|--------|-------|------|
Ab|--------------|-----------|-----------|-------|-9-(9)\-|-------|------|
Eb|o-------------|-----------|-----------|------o|-7-(7)\-|o-----o|------|
Bb|--------------|-----------|-----------|-------|--------|-------|------|

00:00 / 00:00
Outros vídeos desta música
Repetir
Outros vídeos desta música
Composição de Mushroomhead
Colaboração e revisão:
  • Alexandre Rodrigues
986 exibições
    • ½ Tom
    • Am
    • Bbm
    • Bm
    • Cm
    • C#m
    • Dm
    • Ebm
    • Em
    • Fm
    • F#m
    • Gm
    • G#m
  • Adicionar à lista

    0 comentários

    Ver todos os comentários

    Entre para oCifra Club PRO

    Tenha acesso a benefícios exclusivos no App e no Site

    • Chega de anúncios

    • Prioridade de compra em lançamentos

    • Mais recursos no app do Afinador

    • Atendimento Prioritário

    • Descontos nos produtos Cifra Club

    • Ajude a produzir mais conteúdo

    00:00 / 00:00

    Cifra Club Pro

    Aproveite o Cifra Club com benefícios exclusivos e sem anúncios
    Cifra Club Pro
    Aproveite o Cifra Club com benefícios exclusivos e sem anúncios
    OK