Cifra Club

Jingle Bells

Musica Natalina

Cifra: Principal (violão e guitarra)
tom: G


E|---14-14-14---14-14-14---14--17---------------------------|
B|---15-15-15---14-14-14---15-----15--17--b17--15--12--10---|
G|----------------------------------------------------------|
D|----------------------------------------------------------|
A|----------------------------------------------------------|
E|----------------------------------------------------------|

E|------------------|----------------------------------|
B|------------------|----------------------------------|
G|-------9--7--5----|---------9--7--5------------------|
D|-5--5-----------5-|--5-5-5-----------7---------------|
A|------------------|----------------------------------|
E|------------------|----------------------------------|

E|-------------------|---------------------------------|
B|-------------------|---------------------------------|
G|------10--9--7-----|-12--14--12--10--7--9------------|
D|-7--7-----------9--|---------------------------------|
A|-------------------|---------------------------------|
E|-------------------|---------------------------------|

E|------------------|----------------------------------|
B|------------------|----------------------------------|
G|-------9--7--5----|---------9--7--5------------------|
D|-5--5-----------5-|--5-5-5-----------7---------------|
A|------------------|----------------------------------|
E|------------------|----------------------------------|

E|------------------------|----------------------------|
B|------------------------|----------------------------|
G|------10--9--7--12-12-12|-12--14--12--10--7--5---5/12|
D|-7--7-------------------|----------------------------|
A|------------------------|----------------------------|
E|------------------------|----------------------------|

-refrão

E|-------------------|---------------------------------|
B|-------------------|---------------------------------|
G|-9--9--9---9--9--9-|-9-12----------9-----------------|
D|-------------------|-------10--12--------------------|
A|-------------------|---------------------------------|
E|-------------------|---------------------------------|

E|-----------------------------------|---------------------|
B|-----------------------------------|---------------------|
G|--10--10--10---10-12--10-9--9--9-9-|--9--7--7--9--7---12-|
D|-----------------------------------|---------------------|
A|-----------------------------------|---------------------|
E|-----------------------------------|---------------------|

-com variação
E|-----------------------------------|---------------------|
B|-----------------------------------|---------------------|
G|--10--10--10---10-12--10-9--9--9-9-|-12--10--9-----------|
D|-----------------------------------|-----------12--10----|
A|-----------------------------------|---------------------|
E|-----------------------------------|---------------------|
00:00 / 00:00
Outros vídeos desta música
Repetir
Outros vídeos desta música
Compositor não encontrado.
Colaboração e revisão:
  • Vinicius Souza
6.902 exibições
    • ½ Tom
    • A
    • Bb
    • B
    • C
    • Db
    • D
    • Eb
    • E
    • F
    • F#
    • G
    • Ab
  • Adicionar à lista

    0 comentários

    Ver todos os comentários

    Conseguiu tocar?

    1 Tocaram 0 Ainda não

    Grave um vídeo tocando Jingle Bells e nos envie!

    Entre para oCifra Club PRO

    Tenha acesso a benefícios exclusivos no App e no Site

    • Chega de anúncios

    • Prioridade de compra em lançamentos

    • Mais recursos no app do Afinador

    • Atendimento Prioritário

    • Descontos nos produtos Cifra Club

    • Ajude a produzir mais conteúdo

    00:00 / 00:00

    Cifra Club Pro

    Aproveite o Cifra Club com benefícios exclusivos e sem anúncios
    Cifra Club Pro
    Aproveite o Cifra Club com benefícios exclusivos e sem anúncios
    OK