Cifra Club

Eu Não Sou Seu amigo

Musical San Francisco

Cifra: Principal
exibições 2.189
Tom: D
 Intro: D9/F# G A 2X
E|---------------------------------14-14------14-17-15-17-17-17/19--------17------|  
B|--5/7-----7-10-8-7---------11/13------15-17-----------------------15-17---------|  
G|-5----7-9----------7-7/9--------------------------------------------------------|  
D|--------------------------------------------------------------------------------|  
A|--------------------------------------------------------------------------------|  
E|--------------------------------------------------------------------------------|  


D9/F#                                    A
Amigo eu fui na casa dela eu fui tentar voltar
                                       G
A coisa não deu certo eu fui parar num bar

Eu arrumei uma briga eu apanhei de mais
                          G#º          D9/F#
Eu fui na casa dela pra falar que eu amava
          Bm          Em
Mas me encheram de porrada
           G               A
Só por que eu queria conversar amigo
      D9/F#
Na verdade eu nem sei
                         A
Por que tá me chamando assim  o o o
          G
Não me venha com esse papo

Que eu sou o seu amigo
                  A              D9/F#
A briga que você arrumou naquele bar
            Bm           A
Foi a mando meu pode acreditar
                  G   A   D9/F#
A mulher que você ama se casou comigo
              A
Ai ai ai meu Deus
    G                                     D9/F#
Um amor é assim, quando um perde o outro ganha
                       E
Não, mexe com o que é meu
         G                  A             D9/F#
Por um grande amor a gente bate a gente apanha

Intro: D9/F# G A 2X

E|---------------------------------14-14------14-17-15-17-17-17/19--------17------|  
B|--5/7-----7-10-8-7---------11/13------15-17-----------------------15-17---------|  
G|-5----7-9----------7-7/9--------------------------------------------------------|  
D|--------------------------------------------------------------------------------|  
A|--------------------------------------------------------------------------------|  
E|--------------------------------------------------------------------------------|  
D9/F#                                    A
Amigo eu fui na casa dela eu fui tentar voltar
                                       G
A coisa não deu certo eu fui parar num bar

Eu arrumei uma briga eu apanhei de mais
                          G#º          D9/F#
Eu fui na casa dela pra falar que eu amava
          Bm          Em
Mas me encheram de porrada
           G               A
Só por que eu queria conversar amigo
      D9/F#
Na verdade eu nem sei
                         A
Por que tá me chamando assim  o o o
          G
Não me venha com esse papo

Que eu sou o seu amigo
                  A              D9/F#
A briga que você arrumou naquele bar
            Bm           A
Foi a mando meu pode acreditar
                  G   A   D9/F#
A mulher que você ama se casou comigo
              A
Ai ai ai meu Deus
    G                                     D9/F#
Um amor é assim, quando um perde o outro ganha
                       E
Não, mexe com o que é meu
         G                  A             D9/F#
Por um grande amor a gente bate a gente apanha
Intro:D9/F# G A

E|--------14-14------14-17-15-17-17-17/19--------17------|  
B|--11/13------15-17-----------------------15-17---------|  
G|-------------------------------------------------------|  
D|-------------------------------------------------------|  
A|-------------------------------------------------------|  
E|-------------------------------------------------------|
Acordes para:
    Composição: Mauricio Lima, Cesar Moreno,Colaboração e revisão:
    • Arthur Borba

    0 comentários

      mostrar mais comentários

      Conseguiu tocar?

      0tocaram0ainda não

      Grave um vídeo tocando Eu Não Sou Seu amigo e mande pra gente!

      00:00 / 00:00
      outros vídeos desta música
      repetirqualidadeautomática
      Outro vídeos desta música
        00:00 / 00:00
        automática
        OK