Cifra Club

Um Homem Quando Chora

Musical San Francisco

Cifra: Principal
exibições 40.828
Tom: G
G                 Em               C     Am         D
No meio da noite, toca o telefone, vou correndo atender...
G              Em             C           D    C D7 C
Ouço gemidos, fico escutando, sem entender...c
            D          G     D      Em                       C
Algo está errado, eu queria estar sonhando, deu vontade de morrer,
          Am         D       C    D      G
Quando ouvi ela dizer... à outro eu  te amo..

Refrão:

G                                           D
Um homem quando chora, a raiva e o ciúme que eu passei, sabendo que a
                      C            Am       D
Mulher que eu mais amei, foi pra cama com outro...
                  G                                 D
Um homem quando chora, e enche a cara pra passar a dor, a cerveja é o
              C            D    D7    G
Remédio pro amor,quem não bebe fica louco...

Solo: G  Em  C  C  G  D

E|--7---8-10---10-12----14-15-14-15-16-17----------19-17-17--|
B|----8------8-------8--------------------15-15-15-----------|
G|-----------------------------------------------------------|
D|-----------------------------------------------------------|
A|-----------------------------------------------------------|
E|-----------------------------------------------------------|

G                 Em               C     Am         D
No meio da noite, toca o telefone, vou correndo atender...
G              Em             C           D    C D7 C
Ouço gemidos, fico escutando, sem entender...
            D          G     D      Em                       C
Algo está errado, eu queria estar sonhando, deu vontade de morrer,
          Am         D       C    D      G   D
Quando ouvi ela dizer... à outro eu  te amo..

Refrão:
                 G                                D
Um homem quando chora, a raiva e o ciúme que eu passei, sabendo que a
                      C            Am       D
Mulher que eu mais amei, foi pra cama com outro...
                  G                                 D
Um homem quando chora, e enche a cara pra passar a dor, a cerveja é o
              C            D    D7    G
Remédio pro amor,quem não bebe fica louco...

Solo: G  Em  C  C  G  D  G

E|--7---8-10---10-12----14-15-14-15-16-17-----------17-16-16-17-15-15--|
B|----8------8-------8--------------------15-15-15---------------------|
G|---------------------------------------------------------------------|
D|---------------------------------------------------------------------|
A|---------------------------------------------------------------------|
E|---------------------------------------------------------------------|
Acordes para:
    Colaboração e revisão:

    0 comentários

      mostrar mais comentários

      Conseguiu tocar?

      3tocaram0ainda não

      Grave um vídeo tocando Um Homem Quando Chora e mande pra gente!

      00:00 / 00:00
      outros vídeos desta música
      repetirqualidadeautomática
      Outro vídeos desta música
        00:00 / 00:00
        automática
        OK