Bat Macumba

Os Mutantes

Composição de: Caetano Veloso / Gilberto Gil
Os Mutantes - Bat Macumba
Bass Tab


E |-----------------| 
A |-3--3------------| 
D |-----22-3-33-----| 
G |-------------2-5-| 

Variação:
E |-------------------| 
A |-3--3--------1-2-3-| 
D |-----22-3-33-------| 
G |-------------------|

Transcrito por:
Rafael Ortega
rafaort@gmail.com

_______________________________________________________
Contribuição: Rafael Ortega(rafaort@gmail.com)
Página 1 / 1

Letras e título
Acordes e artista

resetar configurações
OK