Swallow

My Bloody Valentine

Composição de: Kevin Shields
tom: Ab Afinação: E A D G B E
  intro/chorus:
E|-----8--0--0--8--0--8--|
B|-----8--x--x--8--x--8--|
G|--8--8--7--7--8--7--8--|
D|--8--x--x--x--x--x--x--|
A|--6--6--6--6--6--6--6--|
E|--0--7--7--7--7--7--7--|


  verse:
               x2                           x2
E|--8--8-------| |------------x---------x--|
B|--8--8-------| |--8--10--8--8------8--8--|
G|--8--7-------| |--8--10--8--x---8--8--x--|
D|--6--0-------| |--6--8---6--10--8--6--10-|
A|-------------| |--6--8------11--6-----11-|
E|-------------| |--0--x------x---0-----x--|
Página 1 / 1

Letras e título
Acordes e artista

resetar configurações
OK