Cifra Club

Aprenda

Cancer Acoustic

My Chemical Romance

Cifra: Principal (violão e guitarra)
Tom: B
The beat goes in 4/4 you can hit the chords 2 times in 1/4 I think that sounds better.

  Intro 2x
e|----------------|-7--7--7--7-|
B|----------------|-7--7--7--7-|
G|-9---8---11---9-|-8--8--8--8-|
D|-9---9---9----9-|-9--9--9--9-|
A|-7-7-7-7-7--7-7-|-9--9--9--9-|
E|----------------|-7--7--7--7-|

    Verse 2x
e|--0-0-0-0-|---------|-4-4-4-------|-0-0-0-0-|
B|--0-0-0-0-|-4-4-2-4-|-5-5-5-------|-1-1-1-1-|
G|--1-1-1-1-|-4-4-4-4-|-6-6-6-------|-2-2-2-2-|
D|--2-2-2-2-|-4-4-4-4-|-6-6-6-------|-2-2-2-2-|
A|--2-2-2-2-|-2-2-2-2-|-4-4-4-3-2-0-|-0-0-0-0-|
E|--0-0-0-0-|---------|-------------|---------|

  Pre chorus 1x
e|-0-0-2-2-|---------|-4-4-4-4-|-5-5-5-5-|
B|-2-2-2-2-|-4-4-4-4-|-5-5-5-5-|-5-5-5-5-|
G|-2-2-3-3-|-4-4-5-5-|-6-6-6-6-|-5-5-5-5-|
D|-2-2-4-4-|-4-4-5-5-|-6-6-6-6-|-7-7-7-7-|
A|-0-0-4-4-|-2-2-3-3-|-4-4-4-4-|-7-7-7-7-|
E|-----2-2-|---------|---------|-5-5-5-5-|

  Chorus 1x
e|--2-2-2-2-|---------|---------|---------|
B|--2-2-2-2-|-4-4-2-4-|---------|---------|
G|--3-3-3-3-|-4-4-4-4-|-9-9-9-9-|-9-9-9-9-|
D|--4-4-4-4-|-4-4-4-4-|-9-9-9-9-|-9-9-9-9-|
A|--4-4-4-4-|-2-2-2-2-|-7-7-7-7-|-7-7-7-7-|
E|--2-2-2-2-|---------|---------|---------|

    Verse 2x
e|--0-0-0-0-|---------|-4-4-4-------|-0-0-0-0-|
B|--0-0-0-0-|-4-4-2-4-|-5-5-5-------|-1-1-1-1-|
G|--1-1-1-1-|-4-4-4-4-|-6-6-6-------|-2-2-2-2-|
D|--2-2-2-2-|-4-4-4-4-|-6-6-6-------|-2-2-2-2-|
A|--2-2-2-2-|-2-2-2-2-|-4-4-4-3-2-0-|-0-0-0-0-|
E|--0-0-0-0-|---------|-------------|---------|

  Chorus 1x
e|--2-2-2-2-|---------|---------|---------|
B|--2-2-2-2-|-4-4-2-4-|---------|---------|
G|--3-3-3-3-|-4-4-4-4-|-9-9-9-9-|-9-9-9-9-|
D|--4-4-4-4-|-4-4-4-4-|-9-9-9-9-|-9-9-9-9-|
A|--4-4-4-4-|-2-2-2-2-|-7-7-7-7-|-7-7-7-7-|
E|--2-2-2-2-|---------|---------|---------|

  Bridge Pt.1 1x
e|-----------------|-----------------|---------|-4-4-----0-0--4-4-|
B|-----------------|-----------------|---------|-5-5-4-4-2-2--4-4-|
G|-----------------|-----------------|-5-5-5-5-|-6-6-4-4-2-2--4-4-|
D|-9-9-9-9-9-9-9-9-|-9-9-9-9-9-9-9-9-|-6-6-6-6-|-6-6-4-4-2-2--6-6-|
A|-7-7-7-7-7-7-7-7-|-7-7-7-7-7-7-7-7-|-3-3-3-3-|-4-4-2-2-0-0--6-6-|
E|-----------------|-----------------|---------|--------------4-4-|

  Bridge Pt.2 1x
e|-2-2-2-2-|-----4-4-|---------|---------|
B|-2-2-2-2-|-4-4-5-5-|---------|---------|
G|-3-3-3-3-|-4-4-6-6-|-5-5-4-4-|-2-2-2-2-|
D|-4-4-4-4-|-4-4-6-6-|-6-6-4-4-|-2-2-2-2-|
A|-4-4-4-4-|-2-2-4-4-|-3-3-2-2-|-0-0-0-0-|
E|-2-2-2-2-|---------|---------|---------|

  Outro 1x
e|--2-2-2-2-|----------|----0~-|
B|--2-2-2-2-|--4-4-2-4-|----0~-|
G|--3-3-3-3-|--4-4-4-4-|----1~-|
D|--4-4-4-4-|--4-4-4-4-|----2~-|
A|--4-4-4-4-|--2-2-2-2-|----2~-|
E|--2-2-2-2-|----------|----0~-|
18.673 exibições
    • ½ Tom
    • A
    • Bb
    • B
    • C
    • Db
    • D
    • Eb
    • E
    • F
    • F#
    • G
    • Ab
  • Adicionar à lista

    0 comentários

    Mostrar mais comentários

    Conseguiu tocar?

    1 Tocaram 0 Ainda não

    Grave um vídeo tocando Cancer Acoustic e mande pra gente!

    00:00 / 00:00
    outros vídeos desta música
    repetir qualidade Automático
    Outros vídeos desta música
    00:00 / 00:00
    Automático
    OK