Cifra Club

Aprenda

Disenchanted

My Chemical Romance

Cifra: Principal (violão e guitarra)
tom: D
[Intro]

E|---------------------------------------------------------------------------|
B|---------------------------------------------------------------------------|
G|----7-----7-----7-----0-----0-----0-----0--2--0----------------------------|
D|-------7-----7-----7-----4-----4-----4-----------4-------------------------|
A|----5-----------------------5----------------------------------------------|
E|---------------------------------------------------------------------------|

E|---------------------------------------------------------------------------|
B|---------------------------------------------------------------------------|
G|----7-----7-----7-----0-----0-----0-----0--2--0----------------------------|
D|-------7-----7-----7-----4-----4-----4-----------4-------------------------|
A|----------------------------2----------------------------------------------|
E|----7----------------------------------------------------------------------|

E|---------------------------------------------------------------------------|
B|----3-----3-----3----------------------------------------------------------|
G|-------2-----2-----2--0-----0-----0-----0--2--0----------------------------|
D|-------------------------4-----4-----4-----------4-------------------------|
A|---------------------------------------------------------------------------|
E|----3-----------------------3----------------------------------------------|

E|---------------------------------------------------------------------------|
B|---------------------------------------------------------------------------|
G|----7-----7-----7-----0-----0-----0----------------------------------------|
D|-------7-----7-----7-----4-----4-----4--5--7--5--4-------------------------|
A|---------------------------------------------------------------------------|
E|----5-----------------------5----------------------------------------------|

            D
Well I was there on the day

They sold the cause for the queen
             Bm
And when the lights all went out

We watched our lives on the screen
           G
I hate the ending myself
                        A
But it started with an alright scene

           D5
It was the roar of the crowd

That gave me heartache to sing
         B5
It was a lie when they smiled

And said, "you won't feel a thing"
          G5
And as we ran from the cops
                             A5
We laughed so hard it would sting
     A5    Bb5
Yeah yeah, oh

Bm         Em
If I'm so wrong (so wrong, so wrong)
             A                D5           C#5
How can you listen all night long? (night long, night long)
Bm                    G
Now will it matter after I'm gone?
             A            
Because you never learn a goddamned thing

               D
You're just a sad song with nothing to say
         Bm
About a life long wait for a hospital stay
            Em
And if you think that I'm wrong
                          A
This never meant nothing to ya

          D5
I spent my high school career

Spit on and shoved to agree
            B5
So I could watch all my heroes

Sell a car on tv
              G5
Bring out the old guillotine
                           A5
We'll show 'em what we all mean
     A5  Bb5
Yeah yeah, oh

Bm         Em
If I'm so wrong (so wrong, so wrong)
             A                D5           D5/C#
How can you listen all night long? (night long, night long)
Bm                    G
Now will it matter after I'm gone?
             A            
Because you never learn a goddamned thing

               D
You're just a sad song with nothing to say
         Bm
About a life long wait for a hospital stay
            Em
And if you think that I'm wrong
                          A
This never meant nothing to ya

   D5      Bb5       D5       Bb5
So go, go away, just go, run away
                   D5          D5/C#         B5
But where did you run to? And where did you hide?
         A5     G5              A5
Go find another way, price you pay

E|---------------------------------------------------------------------------|
B|---------------------------------------------------------------------------|
G|----7-----7-----7-----0-----0-----0-----0--2--0----------------------------|
D|-------7-----7-----7-----4-----4-----4-----------4-------------------------|
A|----5-----------------------5----------------------------------------------|
E|---------------------------------------------------------------------------|

E|---------------------------------------------------------------------------|
B|---------------------------------------------------------------------------|
G|----7-----7-----7-----0-----0-----0-----0--2--0----------------------------|
D|-------7-----7-----7-----4-----4-----4-----------4-------------------------|
A|----------------------------2----------------------------------------------|
E|----7----------------------------------------------------------------------|

E|---------------------------------------------------------------------------|
B|----3-----3-----3----------------------------------------------------------|
G|-------2-----2-----2--0-----0-----0-----0--2--0----------------------------|
D|-------------------------4-----4-----4-----------4-------------------------|
A|---------------------------------------------------------------------------|
E|----3-----------------------3----------------------------------------------|

E|---------------------------------------------------------------------------|
B|---------------------------------------------------------------------------|
G|----7-----7-----7-----0-----0-----0----------------------------------------|
D|-------7-----7-----7-----4-----4-----4--5--7--5--4-------------------------|
A|---------------------------------------------------------------------------|
E|----5-----------------------5----------------------------------------------|

 D5    B5    G5    A5
Woah, woah, woah, woah, woah, woah

               D
You're just a sad song with nothing to say
         Bm
About a life long wait for a hospital stay
            Em
And if you think that I'm wrong
                          A
This never meant nothing to ya

               D
You're just a sad song with nothing to say
         Bm
About a life long wait for a hospital stay
            Em
And if you think that I'm wrong
                          A
This never meant nothing to ya
        D
Oh, at all
   Bm
At all
   G
At all
   A
At all

[Final]

E|---------------------------------------------------------------------------|
B|---------------------------------------------------------------------------|
G|----7-----7-----7-----0-----0-----0-----0--2--0----------------------------|
D|-------7-----7-----7-----4-----4-----4-----------4-------------------------|
A|----5-----------------------5----------------------------------------------|
E|---------------------------------------------------------------------------|

E|---------------------------------------------------------------------------|
B|---------------------------------------------------------------------------|
G|----7-----7-----7-----0-----0-----0-----0--2--0----------------------------|
D|-------7-----7-----7-----4-----4-----4-----------4-------------------------|
A|----------------------------2----------------------------------------------|
E|----7----------------------------------------------------------------------|

E|---------------------------------------------------------------------------|
B|----3-----3-----3----------------------------------------------------------|
G|-------2-----2-----2--0-----0-----0-----0--2--0----------------------------|
D|-------------------------4-----4-----4-----------4-------------------------|
A|---------------------------------------------------------------------------|
E|----3-----------------------3----------------------------------------------|

                                                            D
E|-------------------------------------------------------------------2-------|
B|----------------------------------------------------------------3----------|
G|----7-----7-----7-----0-----0-----0-----0--------------------2-------------|
D|-------7-----7-----7-----4-----4-----4-----4--2--0--------0----------------|
A|---------------------------------------------------------------------------|
E|----5-----------------------5----------------------------------------------|
Composição de My Chemical Romance
Colaboração e revisão:
56.963 exibições
    • ½ Tom
    • A
    • Bb
    • B
    • C
    • Db
    • D
    • Eb
    • E
    • F
    • F#
    • G
    • Ab
  • Adicionar à lista

    0 comentários

    Ver todos os comentários

    Conseguiu tocar?

    23 Tocaram 0 Ainda não

    Grave um vídeo tocando Disenchanted e nos envie!

    00:00 / 00:00
    Outros vídeos desta música
    Repetir Qualidade Automático
    Outros vídeos desta música
    00:00 / 00:00
    Automático

    Cifra Club Pro

    Aproveite o Cifra Club com benefícios exclusivos e sem anúncios
    Cifra Club Pro
    Aproveite o Cifra Club com benefícios exclusivos e sem anúncios
    OK