Cifra Club

Disenchanted

My Chemical Romance

Cifra: Versão 2 (violão e guitarra)
Tom: D
INTRODUÇAO:

e|----------------------------------
B|-3--3--3--------------------------
G|---2--2--2------------------------
D|-2---------5--4-5-4-5-4-5-7-5-4---
A|---------------0------------------
E|----------------------------------

e|----------------------------------
B|-3--3--3--------------------------
G|---2--2--2------------------------
D|-----------5--4-5-4-5-4-5-7-5-4---
A|-2-------------0------------------
E|----------------------------------

e|----------------------------------
B|-3--3--3--------------------------
G|---2--2--2------------------------
D|-----------5--4-5-4-5-4-5-7-5-4-2-
A|-0-------------0------------------
E|----------------------------------

VERSO
D5 B5 G5 A5 B5 G5 A5 D5 B5 G5 A5

PRÉ-REFRÃO:
E|-----------------------------
B|-----------------------------
G|-4~----2~--77-7/55-5/4~----2-
D|-4~-5~-2~--77-7/55-5/4~-5~-2-
A|-2~-5~-0~--55-5/33-3/2~-5~-0-
E|----3~------------------3~---

REFRAO
D5 B5 G5 A5 

Este riff é tocado na segunda vez que toca o verso (Ouça a musica para pegar o tempo):

E|-14-12-10------11-9-8-
B|----------------------
G|----------------------
D|----------------------
A|----------------------
E|----------------------

BREAKDOWN:
Guitarra 1:
E|------------------------------------------------------------
B|------------------------------------------------------------
G|-2~----------4~----2~---------4~--77-7/55-4/44-4/22-------2-
D|-2~----------4~----2~---------4~--77-7/55-4/44-4/22--7/5~-2-
A|-0~-2-4-5/7--2~----0~-2-4-5/7-2~--55-5/33-3/22-2/00--7/5~-0-
E|-----------------------------------------------------5/3~---

Guitarra 2:
E|-15--17-19--20^-19-15--17-19--20^-19-20^-20^-20-19-17-16-14-14-15-14-15-17-15-14
B|--------------------------------------------------------------------------------
G|--------------------------------------------------------------------------------
D|--------------------------------------------------------------------------------
A|--------------------------------------------------------------------------------
E|--------------------------------------------------------------------------------

SOLO:
Guitarra 1 fica na base  D5  B5  G5  A5

Guitarra 2: 
E|--------------------------------
B|-3-3-3--------------------------
G|--2-2-2-------------------------

D|--------5--4--5-4-5-4-5-7-5-4---3x depois bate A5
A|--------------------------------
E|--------------------------------

seqüencia:
*INTRODUÇÃO
*VERSO
*PRÉ-REFRÃO
*REFRÃO
*VERSO
*PRÉ-REFRÃO
*REFRÃO
*BREAKDOWN
*SOLO
*REFRÃO
*INTRODUÇÃO
exibições 16.613
Acordes para:
    Composição: My Chemical Romance Colaboração e revisão:
    • caue cavalaro
    • Amanda Cristine

    0 comentários

    mostrar mais comentários

    Conseguiu tocar?

    1 tocaram 0 ainda não

    Grave um vídeo tocando Disenchanted e mande pra gente!

    00:00 / 00:00
    outros vídeos desta música
    repetir qualidade Automático
    Outros vídeos desta música
    00:00 / 00:00
    Automático
    OK