Cifra Club

Aprenda

Disenchanted

My Chemical Romance

Cifra: Versão 4 (violão e guitarra)
Tom: G
Album: The Black Parade
Tabber: TheRev12

Intro Riff
E--------------------------------------------------------------------------|
B----3---3---3-------------------------------------------------------------|
G------2---2---2-0-2-0---0---0---0-2-0----X 8------------------------------|
D----------------------4---4---4-------4-----------------------------------|
A--------------------------------------------------------------------------|
E--------------------------------------------------------------------------|

Riff 1                      Riff 2
E--------------------------|-----------------------------------------------|
B--------------------------|-----------------------------------------------|
G---7~~--4~~---------------|-4~----------7-7---7-7-7---7-4~----------------|
D---7~~--4~~--5~~--7-------|-4~--2~--7~--7-7-x-7-7-7-x-7-4~-2~-7~-9--11-12-|
A---5~~--2~~--5~~--7-------|-2~--2~--7~--5-5-x-5-4-4-x-4-2~-2~-7~-9--11-12-|
E-------------3~~--5~~5~-6~|-----0~--5~---------------------0~-5~-7--9--10-|

Riff 3 (goes with riff 1 second time around)
E--------------------------------------------------------------------------|
B--12-12-12-11-11-11-11-11-------------------------------------------------|
G---x--x--x--x--x--x--x--x---X 4-------------------------------------------|
D--10-10-10--9--9--9--9--9--------2-----7----------------------------------|
A---------------------------------2-x16-7-x16------------------------------|
E---------------------------------0-----5----------------------------------|

riff 1
riff 2
riff 3

Riff 4                 Riff 5
E---------------------|----------------------------------------------------|
B---------------------|----------------------------------------------------|
G-7-------------------|-7-7-x-7-7-7---7-4-4---4-2-2------------------------|
D-7--------------X 2--|-7-7-x-7-7-7---7-4-4---4-2-2---5555555577777777-----|
A-5-0-5-7-9-1~--------|-5-5-x-5-4-4-x-4-2-2-x-2-0-0-x-5555555577777777-----|
E---------------------|-------------------------------3333333355555555-----|

Intro riff (riff 1 underneath) (Palm mute the G and the A 8 times each)
riff 3
intro riff (well outro riff its the same really)

finnish on
E-----2------------|
B----3-------------|
G---2--------------|
D--0---------------|
A--Sweep-----------|
E------------------|
 

Composição de My Chemical Romance
752 exibições
    • ½ Tom
    • A
    • Bb
    • B
    • C
    • Db
    • D
    • Eb
    • E
    • F
    • F#
    • G
    • Ab
  • Adicionar à lista

    0 comentários

    Mostrar mais comentários

    Conseguiu tocar?

    0 Tocaram 0 Ainda não

    Grave um vídeo tocando Disenchanted e mande pra gente!

    00:00 / 00:00
    outros vídeos desta música
    repetir qualidade Automático
    Outros vídeos desta música
    00:00 / 00:00
    Automático

    Cifra Club Pro

    Aproveite o Cifra Club com benefícios exclusivos e sem anúncios
    7 dias grátis
    Cifra Club Pro
    Aproveite o Cifra Club com benefícios exclusivos e sem anúncios
    7 dias grátis
    OK