Cifra Club

I'm Not Okay

My Chemical Romance

Cifra: Principal (violão e guitarra)
Tom: E
Introdução (guitarras 1 & 2)
 
 e|---------------------------------------------|
 B|---------------------------------------------|
 G|--7-7-7-7-7-7-7-7-7-7-7-7-7-7-7-7-7-7-7-7-7--|
 D|--x-x-x-x-x-x-x-x-x-x-x-x-x-x-x-x-x-x-x-x-x--|
 A|--5-5-5-5-5-5-5-5-5-5-5-5-5-5-5-5-5-5-5-5-5--|
 E|---------------------------------------------|

 Depois entra o Riff 1 que só a guitarra 1 faz, a guitarra 2 faz a 
 Base:D5 B5 E5 A5.
 
   Riff 1
     
Base-> D5 (Na 2ª vez desse riff a base faz B5)
 e|-----------------------------------------------------------------------------------------|
 B|-15-15-15-15-15-15-15--------------------------------------------------------------------|
 G|-x--x--x--x--x--x--x---14-14-14-14-14-14-14-14-12-12-12-12-12-12-12-11-11-11-11-11-11-11-| 2x
 D|-12-12-12-12-12-12-12--x--x--x--x--x--x--x--x--x--x--x--x--x--x--x--x--x--x--x--x--x--x--|
 A|-----------------------12-12-12-12-12-12-12-12-10-10-10-10-10-10-10-9--9--9--9--9--9--9--|
 E|-----------------------------------------------------------------------------------------|

Base-> E5                                    A5
 e|---------------------------------------------------------------------------------------------------------------------------------------------|
B|---------------------------------------------------------------------------------------------------------------------------------------------|
G|-12-12-12-12-12-12-12-14-14-14-14-14-14-14-9-9-9-9-9-9-9-12-12-12-12-12-12-12-14-14-14-14-14-14-14-16-16-16-16-16-16-16-18-18-18-18-18-18-18-|
D|-x--x--x--x--x--x--x--x--x--x--x--x--x--x--x-x-x-x-x-x-x-x--x--x--x--x--x--x--x--x--x--x--x--x--x--x--x--x--x--x--x--x--x--x--x--x--x--x--x--|
A|-10-10-10-10-10-10-10-12-12-12-12-12-12-12-7-7-7-7-7-7-7-10-10-10-10-10-10-10-12-12-12-12-12-12-12-14-14-14-14-14-14-14-16-16-16-16-16-16-16-|
E|---------------------------------------------------------------------------------------------------------------------------------------------|

        Riff 2 nos versos (preste atenção no palm mute abaixo ele é importante).

        Obs: Troque de acorde quando trocar de frase.
    D5                   B5                   E5                   A5
 e|--------------------------------------------------------------------------------------|
 B|--------------------------------------------------------------------------------------|
 G|--77-7-77-7-77-7-77-7-----------------------99-9-99-9-99-9-99-9-----------------------|
 D|--77-7-77-7-77-7-77-7--99-9-99-9-99-9-99-9--99-9-99-9-99-9-99-9--77-7-77-7-77-7-77-7--|
 A|--55-5-55-5-55-5-55-5--99-9-99-9-99-9-99-9--77-7-77-7-77-7-77-7--77-7-77-7-77-7-77-7--|
 E|-----------------------77-7-77-7-77-7-77-7-----------------------55-5-55-5-55-5-55-5--|
 PM  ..   ..   ..   ..    ..   ..   ..   ..    ..   ..   ..   ..    ..   ..   ..   ..    

        Letra:

        Verso 1:

        D5
        Well if you wanted honesty, that's all you had to say.
        B5
        I never want to let you down or have you go, it's better of this way.
        E5
        For all the dirty looks, the photographs your boyfriend took,
        A5
        Remember when you broke your foot from jumping out the second floor?


        Refrão:

        (riff 1 com as duas guitarras)

        I'm not okay.
        I'm not okay.
        I'm not okay.
        You wear me out.

        Verso 2:

        D5
        What will take to show it's not life it seems? (I'm not okay)
        B5
        I told you  time and time again you sing the words but don't know what they mean (I'm not okay)
        E5
        So be a joke and look, another line without a hook
        A5
        I held you close as we both shook for the last time take a good hard look!

        Refrão:

        (riff 1 com as duas guitarras)

        I'm not okay.
        I'm not okay.
        I'm not okay.
        You wear me out.

   Solo Guitarra 1 (dica: o bend "b" ou levantar a corda você
levanta na casa indicada e faz a nota que vem na frente.) 
   
   Base:D5 B5 E5 A5
 e|------------------------------------------------------------------------------
----------------------------------------------------------------------------------
B|--10-12b14-12b14-12b14-10-9--10---------------10-12b13-12b13-10-12~-12/14-10~--
-12-14-15-12-14-15-12-14-15-12-14-15--14b15-14b15-14b15-14-15-17-15-14-15-14-12~-
G|--------------------------------9--9-7-6-7-9-----------------------------------
---------------------------------------------------------------------------------
 
 e|------------------------------|
 B|-12-14-15-12-14-15-14-12-10~--|
 G|------------------------------|
 

        Verso 3:
        E5
exibições 67.704
Acordes para:
    Composição: My Chemical Romance Colaboração e revisão:
    • Leonardo Rodrigues
    • Eduardo Jorge
    • Élison Duarte

    0 comentários

    mostrar mais comentários

    Conseguiu tocar?

    10 tocaram 1 ainda não

    Grave um vídeo tocando I'm Not Okay e mande pra gente!

    00:00 / 00:00
    outros vídeos desta música
    repetir qualidade Automático
    Outros vídeos desta música
    00:00 / 00:00
    Automático
    OK