Cifra Club

Aprenda

Na Na Na

My Chemical Romance

Cifra: Principal (violão e guitarra)
Tom: B
(intro)

E|-----------------------------------------------|
B|-----------------------------------------------|
G|--------------------------------------4--------|
D|--6----6--4--6----6--4--6----6--4--6-----6--4--|
A|-----------------------------------------------|
E|-----------------------------------------------|

E|-----------------------------------------------|
B|-----------------------------------------------|
G|-----------------------------------------------|
D|--------------------------------------4--------|
A|--6----6--4--6----6--4--6----6--4--6-----6--4--|
E|-----------------------------------------------|

E|---------------------------------------------------------------------|
B|---------------------------------------------------------------------|
G|---------------------------------------------------------------------|
D|--------------------------4----4-----4----4--5--6----6--4--6----4----|
A|--4----4--2--4----4--2------------6----------------------------------|
E|---------------------------------------------------------------------|

     D#5
E|--------------------------|
B|--------------------------|
G|-----8--8--8--8--8--8--8--|
D|-----8--8--8--8--8--8--8--|
A|-----6--6--6--6--6--6--6--|
E|--------------------------|

(verso)
     G#5           (8x)                (8x)
E|-------------------|-------------------|
B|-------------------|-------------------|
G|-------------------|-------------------|
D|--6----------------|--6----------------|
A|--6----------------|--6----------------|
E|--4----------------|--4----------------|
    D#5          (8x)                (8x)
E|-------------------|-------------------|
B|-------------------|-------------------|
G|--8----------------|--8----------------|
D|--8----------------|--8----------------|
A|--6----------------|--6----------------|
E|-------------------|-------------------|
    C#5          (8x)  F#5           (8x)
E|-------------------|-------------------|
B|-------------------|-------------------|
G|--6----------------|-------------------|
D|--6----------------|--4----------------|
A|--4----------------|--4----------------|
E|-------------------|--2----------------|
    G#5           (8x)
E|-------------------|
B|-------------------|
G|-------------------|
D|--6----------------|
A|--6----------------|
E|--4----------------|
       D#5
E|--------------------------|
B|--------------------------|
G|-----8--8--8--8--8--8--8--|
D|-----8--8--8--8--8--8--8--|
A|-----6--6--6--6--6--6--6--|
E|--------------------------|

(refrão)
   B5
E|--------------------------|
B|--------------------------|
G|--4--4--4--4--4--4--4--4--|
D|--4--4--4--4--4--4--4--4--|
A|--2--2--2--2--2--2--2--2--|
E|--------------------------|

E|--------------------------|
B|--------------------------|
G|--4--4--4--4--4--4--4--4--|
D|--4--4--4--4--4--4--4--4--|
A|--2--2--2--2--2--2--2--2--|
E|--------------------------|

   F#5
E|--------------------------|
B|--------------------------|
G|--------------------------|
D|--4--4--4--4--4--4--4--4--|
A|--4--4--4--4--4--4--4--4--|
E|--2--2--2--2--2--2--2--2--|

E|--------------------------|
B|--------------------------|
G|--------------------------|
D|--4--4--4--4--4--4--4--4--|
A|--4--4--4--4--4--4--4--4--|
E|--2--2--2--2--2--2--2--2--|

   G#5
E|--------------------------|
B|--------------------------|
G|--------------------------|
D|--6--6--6--6--6--6--6--6--|
A|--6--6--6--6--6--6--6--6--|
E|--4--4--4--4--4--4--4--4--|

E|--------------------------|
B|--------------------------|
G|--------------------------|
D|--6--6--6--6--6--6--6--6--|
A|--6--6--6--6--6--6--6--6--|
E|--4--4--4--4--4--4--4--4--|

   E5
E|--------------------------|
B|--------------------------|
G|--------------------------|
D|--2--2--2--2--2--2--2--2--|
A|--2--2--2--2--2--2--2--2--|
E|--0--0--0--0--0--0--0--0--|

   G5
E|--------------------------||
B|--------------------------||
G|--------------------------||
D|--5--5--5--5--5--5--5--5--||
A|--5--5--5--5--5--5--5--5--||
E|--3--3--3--3--3--3--3--3--||
Composição de Frank Iero / Mikey Way / Ray Toro
Colaboração e revisão:
  • Sadraque Augusto
  • Matheus Leoni
12.430 exibições
    • ½ Tom
    • A
    • Bb
    • B
    • C
    • Db
    • D
    • Eb
    • E
    • F
    • F#
    • G
    • Ab
  • Adicionar à lista

    0 comentários

    Mostrar mais comentários

    Conseguiu tocar?

    7 Tocaram 1 Ainda não

    Grave um vídeo tocando Na Na Na e mande pra gente!

    00:00 / 00:00
    outros vídeos desta música
    repetir qualidade Automático
    Outros vídeos desta música
    00:00 / 00:00
    Automático

    Cifra Club Pro

    Aproveite o Cifra Club com benefícios exclusivos e sem anúncios
    7 dias grátis
    Cifra Club Pro
    Aproveite o Cifra Club com benefícios exclusivos e sem anúncios
    7 dias grátis
    OK