Cifra Club

Always Your Way Acoustic

My Vitriol

Cifra: Principal (violão e guitarra)
tom: D
drop D tuning


Intro

E--9----9------------------------------------------------x---x--------|
B--10---10-----------------------------------------------x---x--------|
G--11---11----------------6b-9-11-6----------------------7---6--------|
D--0----9---x2-------------------------------------------0---0--------|
A--x----9---------strum roughly over these---------------x---x--------|
D--x----9--------notes muting the top strings EandB------9---7--------|

Verses

E---9-----9----x---x---2-(2)------|
B---10---10----0---0---3-(2)------|
G---11---11----0---0---2-(2)------|
D---0----9-----0---0---0----------|
A---x----9-----0---0---0----------|
D---x----9-----5---2---0----------|

Chorus

E--0---x---2--0------0--x--2---------------------------------|
B--7---0---3--2------7--0--3--------3-5-7--------------------| 
G--0---0---2--2------0--0--2---------------------------------|
D--0---0---0--2------0--0--0-----again strum roughly----x2---|
A--7---0---0--0------7--0--0--------over these notes---------|
D--x---5---0--x------x--5--0---------------------------------|
Compositor não encontrado.
188 exibições
    • ½ Tom
    • A
    • Bb
    • B
    • C
    • Db
    • D
    • Eb
    • E
    • F
    • F#
    • G
    • Ab
  • Adicionar à lista

    0 comentários

    Ver todos os comentários

    Conseguiu tocar?

    0 Tocaram 0 Ainda não

    Grave um vídeo tocando Always Your Way Acoustic e nos envie!

    00:00 / 00:00
    Outros vídeos desta música
    Repetir Qualidade Automático
    Outros vídeos desta música
    00:00 / 00:00
    Automático

    Cifra Club Pro

    Aproveite o Cifra Club com benefícios exclusivos e sem anúncios
    Cifra Club Pro
    Aproveite o Cifra Club com benefícios exclusivos e sem anúncios
    OK