Cifra Club

A Praieira

Nação Zumbi

Cifra: Principal (violão e guitarra)
Tom: F#m
Intro:
  (Guitarra)         (Guitarra2 [2x])
E|-----------------|------------------------------------|
B|-----------------|--------12----12h14-12--------------|
G|------2-4--------|--11h13----13----------13/11-11h13--|
D|--2-4-0-2-2-4----|------------------------------------|
A|--0-2-----0-2-4--|------------------------------------|
E|--------------2--|------------------------------------|

Verso:
  (Parte1)                (Parte2)                (Parte3)
E|-7-x-7-7-x-7-7-6-x-6-x-|-7-x-7-7-x-7-7-9-x-9-x-|-7-x-7-7-x-7-7-5-x-3-x-|
B|-7-x-7-7-x-7-7-6-x-6-x-|-7-x-7-7-x-7-7-9-x-9-x-|-7-x-7-7-x-7-7-5-x-3-x-|
G|-7-x-7-7-x-7-7-6-x-6-x-|-7-x-7-7-x-7-7-9-x-9-x-|-7-x-7-7-x-7-7-5-x-3-x-|
D|-----------------------|-----------------------|-----------------------|
A|-----------------------|-----------------------|-----------------------|
E|-----------------------|-----------------------|-----------------------|

Solo:
E|--------------------------|
B|--------------------------|
G|--------------------------|
D|--9-9--7-9-9-11-11--[p.m.]|
A|--------------------------|
E|--------------------------|


exibições 24.508
Acordes para:
    Composição: João Higino Filho Colaboração e revisão:
    • Ivan Costa

    0 comentários

    mostrar mais comentários

    Conseguiu tocar?

    1 tocaram 1 ainda não

    Grave um vídeo tocando A Praieira e mande pra gente!

    00:00 / 00:00
    outros vídeos desta música
    repetir qualidade Automático
    Outros vídeos desta música
    00:00 / 00:00
    Automático
    OK