Cifra Club

Blunt of Judah

Nação Zumbi

Cifra: Principal (violão e guitarra)
Tom: C
Versão Estúdio
Intro 
                                             pm-   pm-
E|--------------------------------------------------------------|
B|--------------------------------------------------------------|
G|--------------------------------------------------------------|
D|-----------------6-6-6-6-6-6-6-6---------------------7-----7--|
A|-----------------7-7-7-7-7-7-7-7---------------------5-----5--|
E|-0-0-0-0-0-0-0-0-----------------0-0-0-0-0-0-0-0-0-0---0-0----|

                                       pm-   pm-
E|---------------------------------------------------|
B|---------------------------------------------------|
G|---------------------------------------------------|
D|---------------6-6-6-6-------------------7-----7---|
A|---------------7-7-7-7-------------------5-----5---|
E|-0-0-0-0-0-0-0---------0-0-0-0-0-0-0-0-0---0-0-----|

Verso
                                         pm-   pm-
E|-----------------------------------------------------|
B|-----------------------------------------------------|
G|-----------------------------------------------------|
D|-----------------6-6-6-6-------------------7-----7---|
A|-----------------7-7-7-7-------------------5-----5---|
E|-0-0-0-0-0-0-0-0---------0-0-0-0-0-0-0-0-0---0-0-----|

Refrão
                                 pm-     pmpm-     pmpm-
E|---0--0-------------------0-0-----------------------------------|
B|---0--3-------------------0-0-----------------------------------|
G|---0--2-------------------0-0-----------------------------------|
D|-2----0-----------------2---------------------------------------|
A|-2------1-1-1-1-1-2-1-2-2------5-5-5h7-5-5-5-5/7-5-5-5-5/7-5-7--|
E|-0------0-0-0-0-0-0-0-0-0---------------------------------------|

                                 pm-         pm-
E|---0--0-------------------0-0-----------------------------------|
B|---0--3-------------------0-0-----------------------------------|
G|---0--2-------------------0-0-----------------------------------|
D|-2----0-----------------2------------------------5--------------|
A|-2------1-1-1-1-1-2-1-2-2--------5-7h5---7---5-7---5-7-7--------|
E|-0------0-0-0-0-0-0-0-0-0------7-------7---7--------------------|

                                           pm-
E|---0--0-------------------0-0-----------------------------------|
B|---0--3-------------------0-0-----------------------------------|
G|---0--2-------------------0-0-----------------------------------|
D|-2----0-----------------2------7h5---5-7-7-7-7h5---5-7---5-7----|
A|-2------1-1-1-1-1-2-1-2-2----------7-------------7-----7--------|
E|-0------0-0-0-0-0-0-0-0-0---------------------------------------|

                                           pm-
E|---0--0-------------------0-0-----------------------------------|
B|---0--3-------------------0-0-----------------------------------|
G|---0--2-------------------0-0-----------------------------------|
D|-2----0-----------------2---------------------------------------|
A|-2------1-1-1-1-1-2-1-2-2------7h5---5-7-7-7-7h5---5-7---5-7----|
E|-0------0-0-0-0-0-0-0-0-0----------7-------------7-----7--------|

Verso
                                         pm-   pm-
E|-----------------------------------------------------|
B|-----------------------------------------------------|
G|-----------------------------------------------------|
D|-----------------6-6-6-6-------------------7-----7---|
A|-----------------7-7-7-7-------------------5-----5---|
E|-0-0-0-0-0-0-0-0---------0-0-0-0-0-0-0-0-0---0-0-----|

Refrão com variação
                                 pm-     pmpm-     pmpm-
E|---0--0-------------------0-0-----------------------------------|
B|---0--3-------------------0-0-----------------------------------|
G|---0--2-------------------0-0-----------------------------------|
D|-2----0-----------------2---------------------------------------|
A|-2------1-1-1-1-1-2-1-2-2------5-5-5h7-5-5-5-5/7-5-5-5-5/7-5-7--|
E|-0------0-0-0-0-0-0-0-0-0---------------------------------------|

                                           pm-
E|---0--0-------------------0-0-----------------------------------|
B|---0--3-------------------0-0-----------------------------------|
G|---0--2-------------------0-0-----------------------------------|
D|-2----0-----------------2------7h5---5-7-7-7-7h5---5-7---5-7----|
A|-2------1-1-1-1-1-2-1-2-2----------7-------------7-----7--------|
E|-0------0-0-0-0-0-0-0-0-0---------------------------------------|

                                           pm-
E|---0--0-------------------0-0-----------------------------------|
B|---0--3-------------------0-0-----------------------------------|
G|---0--2-------------------0-0-----------------------------------|
D|-2----0-----------------2---------------------------------------|
A|-2------1-1-1-1-1-2-1-2-2------7h5---5-7-7-7-7h5---5-7---5-7----|
E|-0------0-0-0-0-0-0-0-0-0----------7-------------7-----7--------|

                                 pm-         pm-
E|---0--0-------------------0-0-----------------------------------|
B|---0--3-------------------0-0-----------------------------------|
G|---0--2-------------------0-0-----------------------------------|
D|-2----0-----------------2------------------------5--------------|
A|-2------1-1-1-1-1-2-1-2-2--------5-7h5---7---5-7---5-7-7--------|
E|-0------0-0-0-0-0-0-0-0-0------7-------7---7--------------------|
exibições 47.085
Acordes para:
    Composição: Jorge du Peixe Colaboração e revisão:

    0 comentários

    mostrar mais comentários

    Conseguiu tocar?

    1 tocaram 1 ainda não

    Grave um vídeo tocando Blunt of Judah e mande pra gente!

    00:00 / 00:00
    outros vídeos desta música
    repetir qualidade Automático
    Outros vídeos desta música
    00:00 / 00:00
    Automático
    OK