Cifra Club

Meu Maracatu Pesa Uma Tonelada

Nação Zumbi

Cifra: Principal (violão e guitarra)
Tom: Bm
[Intro]

E|----------------------------------------------|
B|----------------------------------------------|
G|----------------------------------------------|
D|----------------------------------------------|
A|---2-2-2-4-2-2-5-2-2-4-2-2-5-5----------------|
E|----------------------------------------------|

E|---------------------|------------------------|
B|---------------------|------------------------|
G|---------------------|------------------------|
D|---------------------|-4-5-7-7----------------|
A|---2-2-2-4-2-2-5-2-2-|-4-5-7-7----------------|
E|---------------------|-2-3-5-5----------------|

Bm
Carrego pr'onde vou
              C
O peso do meu som
            D
Lotando minha bagagem
Bm                           C
Meu maracatu pesa uma tonelada de surdez
              D
E pede passagem 

( E )

E          C        D        Bm
Meu maracatu pesa uma tonelada
                 C
Sempre foi atômico
                              Bm
Agora biônico, eletro-soulsônico
             C
Alterando as batidas

No azougue pesado
               E
Em ritmo crônico
                  C
Tropa de todos os baques existentes
                    E
De longe tremendo e rachando os batentes
C      
Mutante até lá adiante
       Bm
Pois a zoada se escuta distante
C
Levando o baque do trovão
Bm
Sempre certo na contramão

Bm
Carrego pr'onde vou
              C
O peso do meu som
            D
Lotando minha bagagem
Bm                           C
Meu maracatu pesa uma tonelada de surdez
              D
E pede passagem 

E          C        D        Bm
Meu maracatu pesa uma tonelada
exibições 493
Acordes para:

    0 comentários

    mostrar mais comentários

    Conseguiu tocar?

    1 tocaram 0 ainda não

    Grave um vídeo tocando Meu Maracatu Pesa Uma Tonelada e mande pra gente!

    00:00 / 00:00
    outros vídeos desta música
    repetir qualidade Automático
    Outros vídeos desta música
    00:00 / 00:00
    Automático
    OK